PrimaNota.ru - самый крупный в мире бесплатный архив песенных текстов, аккордов, табулатур и нот


Trang Fodsel - Drommedame - таба, видео

Регистрация Запомнить меня
Войти через:  Facebook Google Twitter Vk Yandex Mail.ru

Trang Fodsel - Drommedame - таба, видео

Печатать
Просмотров: 100
Trang fødsel - Drømmedame

Fill 1:

e|--------------------------------|
B|--------------------------------|
G|--------------------------------|
D|----------5--4--------4~----2---|
A|---2--3---------5--2------------|
E|--------------------------------|

Solo 1:

e|------------7--------------10-7-------7-8-7--------------------------7-8-|
B|---9-7--------10--8-7------------8-10-------10-8-7-----7-8---7-----8-----|
G|-------10-------------9-7--------------------------8-9-----9---8-9-------|
D|-------------------------------------------------------------------------|
A|-------------------------------------------------------------------------|
E|-------------------------------------------------------------------------|

e|-----12-15-14-12---------------------------------------------------------|
B|--13-------------15-13-12------------------------------------------------|
G|--------------------------11-14-12-11----11-12-14-11-------------12------|
D|--------------------------------------14-------------12-------13----14---|
A|--------------------------------------------------------13-14------------|
E|-------------------------------------------------------------------------|

Chords:

     Am7   D7  Gmaj7  Cmaj7  Am7/F#  B7  Am11   A7     Em  E7
e|----5----------x------3------0-----2-----5----5------0----0-----|
B|----5----5-----3------5------1-----0-----5----5------0----0-----|
G|----5----5-----4------4------0-----2-----7----6------0----1-----|
D|----5----4-----4------5------2-----1-----5----5------2----0-----|
A|----x----5-----x------3------0-----2-----x----x------2----2-----|
E|----5----------3-------------2-----------5----5------0----0-----|


        Am7     Am11      A7
Samma driten nå har det skjedd igjen

              Am7     D7    Gmaj7   Cmaj7
jeg har latt venners råd få råde igjen

          Am7      D7       Gmaj7  Cmaj7
Vi er på vakt når noen skal vise frem

           Am7/F#      B7            Em
den siste dama de har hatt med seg hjem


Du er søt og jeg vet jeg kan like deg
men det er guttas lov som er loven for meg
Så når de hilser, men ser en annen vei
da er du dømt og jeg vil såre deg


        Am7        D7
Og jeg vet det er feil

      Gmaj7               Cmaj7
å la kompiser styre mitt inntrykk av deg
     Am7      D7
Men mange må gå

        Am7/F#         H7
før vi treffer den vi venter på

Am7            D7
Vi vil ha en drømmedame

   Gmaj7            Cmaj7
en effen, fjeng og fin dame

    Am7/F#           B7     Em E7
En sånn som man kan se på kino

    Am7          D7
En dame man er stolt av å ha med

    Gmaj7      Cmaj7
En kom-å-se-på-meg-dame

Fill 1
som ikke trenger å si no

Solo1

[Repeat chords throughout]

Ikke gråt for du vet hva som hender da
jeg blir en tanke svak og svake sier ja
Det er gutta, du burde ha skjønt det snart
Du scorer mer på å være pen enn smart

Og jeg vet det er feil
å la kompiser styre mitt inntrykk av deg
Men mange må gå
før vi treffer den vi venter på

Vi vil ha en drømmedame
en effen, fjeng og fin dame
En sånn som man kan se på kino
En dame man er stolt av å ha med
En kom-å-se-på-meg-dame
som ikke trenger å si no

Se på Unn, hun har alt
Hun har blikket og kroppen, ja kort fortalt;
Hun er pen, men litt dum
Hun er akuratt som vi drømmer om

Vi vil ha en drømmedame
en effen, fjeng og fin dame
En sånn som man kan se på kino
En dame man er stolt av å ha med
En kom-å-se-på-meg-dame
som ikke trenger å si no

Vi vil ha en drømmedame
en effen, fjeng og fin dame
En sånn som man kan se på kino
En dame man er stolt av å ha med
En kom-å-se-på-meg-dame
som ikke trenger å si no

Submitted by: Tobb
Добавлено: 25.05.2012
Другие материалы по этой песне:

Страница создана 25.05.2012
http://primanota.ru/trang-fodsel/drommedame-chords.htm
Привет, Гость.
Предлагаем пройти революционный курс по гитаре.
Подарок от PrimaNota.Ru, забирай!