PrimaNota.ru - самый крупный в мире бесплатный архив песенных текстов, аккордов, табулатур и нот


Tramps - Disco Inferno - бас-таба, видео

Регистрация Запомнить меня
Войти через:  Facebook Google Twitter Vk Yandex Mail.ru

Tramps - Disco Inferno - бас-таба, видео

Печатать
Просмотров: 225
song:disco inferno
artist:The Trammps 
album:some disco album
tabbed by:yury lizunov pimpbassist@hotmail.com
correction by alanthomaswatson@yahoo.co.uk

intro
-77-66-44-11----------
-------------33-11----
-------------------44-
----------------------
riffs (changes made to this tab)
-----------------------------------------------------------
--------5-----3-------5------3-------5-----3--------------- 
-1-3--3---3-6----3--3---3-66----3--3---3-6----1-3--3-00-11-
-----------------------------------------------------------


----------------    ---------2-3--
--------5-----3-    -------------- 
-1-3--3---3-6--- x3 -1-3--3-0-1---
----------------    --------------
repeat above riffs as many times as needed

chorus
-------------------------------------------
---3--2--0---------------------------------
-3---------3-11-0----0-5-3-33-33-3--33-33--
------------------3------------------------

---------------------------------------------------
---3--2--0-------------------------------------1-3-
-3---------3-11-0----0-5-3-3---------1-3-1-0-3-----
------------------3----------0-1-2-3---------------
Добавлено: 30.05.2012
Другие материалы по этой песне:

Страница создана 25.02.2012
http://primanota.ru/tramps/disco-inferno-chords.htm
Привет, Гость.
Предлагаем пройти революционный курс по гитаре.
Подарок от PrimaNota.Ru, забирай!