PrimaNota.ru - самый крупный в мире бесплатный архив песенных текстов, аккордов, табулатур и нот


Trampled By Turtles - Where Is My Mind - аккорды и текст, видео

Регистрация Запомнить меня
Войти через:  Facebook Google Twitter Vk Yandex Mail.ru

Trampled By Turtles - Where Is My Mind - аккорды и текст, видео

Печатать
Просмотров: 112
Where Is My Mind
Trampled By Turtles
Where is my Mind?
Trampled by Turtles
as made famous by:
The Pixies


the song starts off with:  E  C#m  Ab  A (play 4 times)

on the second time is this lick
count 1 & 2 & 3 & 4 &....   B string is on 4th notes, E string is on &'s 
(actually the banjo but just for the sake of thouroughness):
---4---4---4---4---4---4---4--5-4-2-0---|
-5---5---5---5---4---4---5--------------|
----------------------------------------|
----------------------------------------|
----------------------------------------|
----------------------------------------|

             E                        C#m                  Ab      A
   With your feet in the air and your head on the ground
E      C#m                       Ab       A         
   Try this trick and spin it, yeah
E                  C#m
   Your head will collapse
            Ab
But there's nothing in it 
    A
you ask yourself


E            C#m 
 Where is my mind?
Ab           A
 Where is my mind?  
       E         C#m     Ab    A       
 Whe---ere is my mind?

E  C#m  Ab  A 
                  (play the C#m and B with 8th's down strums to crescendo)
 E   Ab         A             Am (let fade)   C#m   B
 Way out in the water, see it swimming.

the banjo plays this over every line in the verses
---4---4---4---4---4---4---4---4---4---4---4---4---4---4--5-4-2-0-|
-5---5---5---5---4---4---4---4---5---5---5---4---4---5------------|
------------------------------------------------------------------|
------------------------------------------------------------------|
------------------------------------------------------------------|
------------------------------------------------------------------|

E                C#m               Ab   A
  I was swimmin' in the Carribean
E                C#m             Ab     A
  Animals were hiding behind the rock
E                 C#m
  Except a little fish
           Ab      
  But they told me, he swears
           A
  Tryin ta talk to me,  coy koi...  *
Добавлено: 19.08.2013
Другие материалы по этой песне:
  • Аккорды и текст

Страница создана 19.08.2013
http://primanota.ru/trampled-by-turtles/where-is-my-mind-chords.htm
Привет, Гость.
Предлагаем пройти революционный курс по гитаре.
Подарок от PrimaNota.Ru, забирай!