PrimaNota.ru - самый крупный в мире бесплатный архив песенных текстов, аккордов, табулатур и нот


Train Robbers - To The End With Me - таба, видео

Регистрация Запомнить меня
Войти через:  Facebook Google Twitter Vk Yandex Mail.ru

Train Robbers - To The End With Me - таба, видео

Печатать
Просмотров: 83
Уроки эстрадного вокала в Санкт-Петербурге
-------------------------------------------------------------------------------
                       To the End With Me - Train Robbers
-------------------------------------------------------------------------------
Tabbed by: Kobe Canaya :)
E-mail: whattheforsheezy@gmail.com


listen to the song for strum pattern and timing
------------CAPO ON THE THIRD FRET-------------
intro

e|----------------------------------------------|
b|----------------------------------------------|
g|---6h7p6-9--7-6h7p6-----6-6h7p6-9-9-6h7p6-----|
d|--------------------7---------------------7---|
a|----------------------------------------------|
e|----------------------------------------------|

e|----------------------------------------------|
b|----------------------------------------------|
g|---6h7p6-9--7-6h7p6-----6-6h7p6-6-7-9-7-------|
d|--------------------7-------------------------|
a|----------------------------------------------|
e|----------------------------------------------|

verse #1 "Fall in your arms again..."

      F                        C
e|---1-1-1-1-1-1-1-1-1-1-1----0-0-0-0-0-0-0-0-0-0-0------------------|
b|---1-1-1-1-1-1-1-1-1-1-1----1-1-1-1-1-1-1-1-1-1-1------------------|
g|---2-2-2-2-2-2-2-2-2-2-2----0-0-0-0-0-0-0-0-0-0-0-----x2-----------|
d|---3-3-3-3-3-3-3-3-3-3-3----2-2-2-2-2-2-2-2-2-2-2------------------|
a|---3-3-3-3-3-3-3-3-3-3-3----3-3-3-3-3-3-3-3-3-3-3------------------|
e|---1-1-1-1-1-1-1-1-1-1-1----x-x-x-x-x-x-x-x-x-x-x------------------|

pre-chorus (palm-muted) "Take me back to symphonies..."

e|-----------------------------------------------------------------------------|
b|-----------------------------------------------------------------------------|
g|---6------------------6------------------6-----------------9-7-6-------------|
d|------7-7--77-7-9-7------7-7--77-7-9-7------7-7--77-7-9-7--------77-77-79----|
a|-----------------------------------------------------------------------------|
e|-----------------------------------------------------------------------------|

e|-----------------------------------------------------------------------------|
b|-----------------------------------------------------------------------------|
g|---6------------------6------------------9-7-6-9-7-6-9-7-666-----------------|
d|------7-7--77-7-9-7------7-7--77-7-9-7---------------------------------------|
a|-----------------------------------------------------------------------------|
e|-----------------------------------------------------------------------------|

chorus "Leave her alone with me..."

e|----------------------------------------------|
b|----------------------------------------------|
g|---6h7p6-9--7-6h7p6-----6-6h7p6-9-9-6h7p6-----|
d|--------------------7---------------------7---|
a|----------------------------------------------|
e|----------------------------------------------|

e|----------------------------------------------|
b|----------------------------------------------|
g|---6h7p6-9--7-6h7p6-----6-6h7p6-6-7-9-7-------|
d|--------------------7-------------------------|
a|----------------------------------------------|
e|----------------------------------------------|

solo? #1

e|---5555-5-55------5-5------5-5--------|
b|---7777-7-77------7-7------5-5--------|
g|---6666-6-66------6-6------6-6--------|
d|---7777-7-77------7-7--x2--7-7--x2----|
a|---xxxx-x-xx------x-x------x-x--------|
e|---xxxx-x-xx------x-x------x-x--------|

e|---5-5-55-5-5---5555---5-55-7-5---|
b|---7-7-77-7-7---7777---7-77-9-7---|
g|---6-6-66-6-6---6666---6-66-8-6---|
d|---7-7-77-7-7---7777---7-77-9-7---|
a|---x-x-xx-x-x---xxxx---x-xx-x-x---|
e|---x-x-xx-x-x---xxxx---x-xx-x-x---|

e|---5555-5-55-5-5-5---5555-5-5-5-5-5-|
b|---7775-5-55-5-5-5---5555-5-5-5-5-5-|
g|---6666-6-66-6-6-6---6666-6-6-6-6-6-|
d|---7777-7-77-7-7-7---7777-7-7-7-7-7-|
a|---xxxx-x-xx-x-x-x---xxxx-x-x-x-x-x-|
e|---xxxx-x-xx-x-x-x---xxxx-x-x-x-x-x-|

verse #2 "I lose my mind thinking of time on you..."

e|---1-1-1-1-1-1-1-1-1-1-1----0-0-0-0-0-0-0-0-0-0-0------------------|
b|---1-1-1-1-1-1-1-1-1-1-1----1-1-1-1-1-1-1-1-1-1-1------------------|
g|---2-2-2-2-2-2-2-2-2-2-2----0-0-0-0-0-0-0-0-0-0-0-----x2-----------|
d|---3-3-3-3-3-3-3-3-3-3-3----2-2-2-2-2-2-2-2-2-2-2------------------|
a|---3-3-3-3-3-3-3-3-3-3-3----3-3-3-3-3-3-3-3-3-3-3------------------|
e|---1-1-1-1-1-1-1-1-1-1-1----x-x-x-x-x-x-x-x-x-x-x------------------|

pre-chorus (palm-muted) "So strip down on Havana Beach..."

e|-----------------------------------------------------------------------------|
b|-----------------------------------------------------------------------------|
g|---6------------------6------------------6-----------------9-7-6-------------|
d|------7-7--77-7-9-7------7-7--77-7-9-7------7-7--77-7-9-7--------77-77-79----|
a|-----------------------------------------------------------------------------|
e|-----------------------------------------------------------------------------|

e|-----------------------------------------------------------------------------|
b|-----------------------------------------------------------------------------|
g|---6------------------6------------------9-7-6-9-7-9-7---666-----------------|
d|------7-7--77-7-9-7------7-7--77-7-9-7---------------------------------------|
a|-----------------------------------------------------------------------------|
e|-----------------------------------------------------------------------------|

chorus "Leave her alone with me..."

e|----------------------------------------------|
b|----------------------------------------------|
g|---6h7p6-9--7-6h7p6-----6-6h7p6-9-9-6h7p6-----|
d|--------------------7---------------------7---|
a|----------------------------------------------|
e|----------------------------------------------|

e|----------------------------------------------|
b|----------------------------------------------|
g|---6h7p6-9--7-6h7p6-----6-6h7p6-6-7-9-7-------|
d|--------------------7-------------------------|
a|----------------------------------------------|
e|----------------------------------------------|

solo? #2

e|------5-----5----9------9---------------------------------------------|
b|---7-----7-----5-----5------9-9-7-3/---9-9-7-3/---7-7-5-1---7-5-------|
g|---6-----6-----6-----6------------------------------------------7-4---|
d|---7-----7-----7-----7------------------------------------------------|
a|----------------------------------------------------------------------|
e|----------------------------------------------------------------------|

bridge (palm-muted) "How long will I be withooooouut you?"

e|-----------------------------------------------------------------------------|
b|-----------------------------------------------------------------------------|
g|---6------------------6------------------6-----------------9-7-6-------------|
d|------7-7--77-7-9-7------7-7--77-7-9-7------7-7--77-7-9-7--------77-77-79----|
a|-----------------------------------------------------------------------------|
e|-----------------------------------------------------------------------------|

e|-----------------------------------------------------------------------------|
b|-----------------------------------------------------------------------------|
g|---6------------------6------------------9-7-6-9-7-6--666--------------------|
d|------7-7--77-7-9-7------7-7--77-7-9-7---------------------------------------|
a|-----------------------------------------------------------------------------|
e|-----------------------------------------------------------------------------|

bridge (not palm-muted anymore)

e|-----------------------------------------------------------------------------|
b|-----------------------------------------------------------------------------|
g|---6------------------6------------------6-----------------9-7-6-------------|
d|------7-7--77-7-9-7------7-7--77-7-9-7------7-7--77-7-9-7--------77-77-79----|
a|-----------------------------------------------------------------------------|
e|-----------------------------------------------------------------------------|

e|-----------------------------------------------------------------------------|
b|-----------------------------------------------------------------------------|
g|---6------------------6------------------9-7-6-9-7-6-9-7-6-------------------|
d|------7-7--77-7-9-7------7-7--77-7-9-7---------------------------------------|
a|-----------------------------------------------------------------------------|
e|-----------------------------------------------------------------------------|

final chorus "Leave her alone with me..."

e|----------------------------------------------|
b|----------------------------------------------|
g|---6h7p6-9--7-6h7p6-----6-6h7p6-9-9-6h7p6-----|
d|--------------------7---------------------7---|
a|----------------------------------------------|
e|----------------------------------------------|

e|----------------------------------------------|
b|----------------------------------------------|
g|---6h7p6-9--7-6h7p6-----6-6h7p6-6-7-9-7-------|
d|--------------------7-------------------------|
a|----------------------------------------------|
e|----------------------------------------------|

e|----------------------------------------------|
b|----------------------------------------------|
g|---6h7p6-9--7-6h7p6-----6-6h7p6-9-9-6h7p6-----|
d|--------------------7---------------------7---|
a|----------------------------------------------|
e|----------------------------------------------|

e|----------------------------------------------|
b|----------------------------------------------|
g|---6h7p6-9--7-6h7p6-----6-6h7p6-6-7-9-7-6-----|
d|--------------------7-------------------------|
a|----------------------------------------------|
e|----------------------------------------------|


************************************

| /   slide up
| \   slide down
| h   hammer-on
| p   pull-off
| ~   vibrato
| +   harmonic
| x   Mute note
| b   Bend
| pb  Pre-bend
| br  Bend release
| pbr Pre-bend release
| brb Bend release bend

************************************
Добавлено: 31.10.2015
Другие материалы по этой песне:
  • Аккорды и текст

Страница создана 31.10.2015
http://primanota.ru/train-robbers/to-end-with-me-chords.htm
Привет, Гость.
Предлагаем пройти революционный курс по гитаре.
Подарок от PrimaNota.Ru, забирай!