PrimaNota.ru - самый крупный в мире бесплатный архив песенных текстов, аккордов, табулатур и нот


Trail Of Dead - Rest Will Follow - аккорды и текст, видео

Регистрация Запомнить меня
Войти через:  Facebook Google Twitter Vk Yandex Mail.ru

Trail Of Dead - Rest Will Follow - аккорды и текст, видео

Печатать
Просмотров: 138
Rest Will Follow
Trail Of Dead
Band: ...And you will know us by the Trail of Dead
Song: The Rest Will Follow
Album: Worlds Apart

There is an Acoustic version on youtube where you can figure out how to play this song.


Chords used:

C: x32010
Am:x02210
Em:022000
G: 320000
F: 133211

 
Intro (2x)

Chords:

           C                     Am                   Em                   G

e|--0-0-0--0-0-0-0-0--|--0-0-0--0-0-0-0-0--|--0-0-0--0-0-0-0-0--|--0-0-0--0-0-0-0-0--|
B|--0-0-1--0-0-1-0-1--|--0-0-1--0-0-1-0-1--|--0-0-1--0-0-1-0-1--|--0-0-1--0-0-1-0-1--|
G|--0-0-0--0-0-0-0-0--|--2-2-2--2-2-2-2-2--|--0-0-0--0-0-0-0-0--|--0-0-0--0-0-0-0-0--|
D|--2-2-2--2-2-2-2-2--|--2-2-2--2-2-2-2-2--|--2-2-2--2-2-2-2-2--|--0-0-0--0-0-0-0-0--|
A|--3-3-3--3-3-3-3-3--|--0-0-0--0-0-0-0-0--|--2-2-2--2-2-2-2-2--|--2-2-2--2-2-2-2-2--|
E|--------------------|--------------------|--------------------|--3-3-3--3-3-3-3-3--|


Verse & Chorus 1:

C        Am        Em   G           
 How can anyone be so unkind
C      Am            Em                G
 As to want to take another's "peace of mind"?
C    Am             Em       G
 Is acceptance so implausible?

F      Am C F                 C
Well I know how the best will fall
F                  C
 And the rest will follow
F Am C F                 C
I know how the best will fall
F                  C
 And the rest will follow



Interlude:

           C
           
e|--0-0--0-0-0-0--0-0--0-0--|
B|--1-1--1-0-1-1--1-0--1-1--|
G|--0-0--0-0-0-0--0-0--0-0--|
D|--2-2--2-2-2-2--2-2--2-2--|
A|--3-3--3-3-3-3--3-3--3-3--|
E|--------------------------|




Verse & Chorus 2:

C      Am          Em      G
 It's important to recognize
C        Am                     Em                G
 In this world we live there is nothing worth dying
C        Am           Em               G
 It's enough to say "hello, we're all human"

F      Am C F                 C
 But I know how the best will fall
F                  C
 And the rest will follow
F Am C F                 C
I know how the best will fall
F                  C
 And the rest will follow



Interlude:

           C
           
e|--0-0--0-0-0-0--0-0--0-0--|
B|--1-1--1-0-1-1--1-0--1-1--|
G|--0-0--0-0-0-0--0-0--0-0--|
D|--2-2--2-2-2-2--2-2--2-2--|
A|--3-3--3-3-3-3--3-3--3-3--|
E|--------------------------|



Bridge: 

C

F                 C
 Is it so easy to resign
                   
(To ruin this world for everyone?)
F                               C
 I guess when it's all said and done
           
           Am               C
 It's just something in our design
           Am               C
 It's just something in our design
           Am               C
 It's just something in our design



Interlude:

          C
           
e|--0-0--0-0-0-0--0-0--0-0--|
B|--1-1--1-0-1-1--1-0--1-1--|
G|--0-0--0-0-0-0--0-0--0-0--|
D|--2-2--2-2-2-2--2-2--2-2--|
A|--3-3--3-3-3-3--3-3--3-3--|
E|--------------------------|



C       Am               Em      G
 We are all of us are so capable of
C             Am                   Em            G
 The greatest acts of hate and the worst acts of love
C  Am               Em                        G
 I wonder sometimes what's the matter with us all

F      Am C F                 C
Well I know how the best will fall
F                  C
 And the rest will follow
F Am C F                 C
I know how the best will fall
F                  C
 And the rest will follow




Outro:

            C
           
e|--0-0--0-0-0-0--0-0--0-0--|
B|--1-1--1-0-1-1--1-0--1-1--|
G|--0-0--0-0-0-0--0-0--0-0--|
D|--2-2--2-2-2-2--2-2--2-2--|
A|--3-3--3-3-3-3--3-3--3-3--|
E|--------------------------| 
Добавлено: 23.04.2015
Другие материалы по этой песне:
  • Аккорды и текст

Страница создана 23.04.2015
http://primanota.ru/trail-of-dead/rest-will-follow-chords.htm
Привет, Гость.
Предлагаем пройти революционный курс по гитаре.
Подарок от PrimaNota.Ru, забирай!