PrimaNota.ru - самый крупный в мире бесплатный архив песенных текстов, аккордов, табулатур и нот


Trail Of Dead - Mistakes And Regrets - таба, видео

Регистрация Запомнить меня
Войти через:  Facebook Google Twitter Vk Yandex Mail.ru

Trail Of Dead - Mistakes And Regrets - таба, видео

Печатать
Просмотров: 73
Авторы: …And You Will Know Us by the Trail of Dead

TRAIL OF DEAD (AND YOU WILL KNOW US BY THE)
MISTAKES AND REGRETS
FROM THE ALBUM MADONNA
2000
-----------------------
Tabbed by AAuuddee@aol.com


INTRO:

Guitar1:

--------------------------------------
--------------------------------------
--------------------------------------
---------3-----------------5----------
----1--------1---1-----3-------3---3--
--3---3----3---3-----5---5---5---5----

------------------------------------------
------------------------------------------
------------------------------------------
---------2---------4-----0--------0----0--
----2---------2---------------2-----------
--0---0-----0---0-----0-----0---0---0-----
repeat

----------------------------------------
----------------------------------------
----------------------------------------
--------2--------4--------2-----4----4--
----0-------0--------0------------------
--2---2---2---2----2---2-----2-----2----

------------------------------------------
------------------------------------------
------------------------------------------
---------2---------4-----0--------0----0--
----2---------2---------------2-----------
--0---0-----0---0-----0-----0---0---0-----
repeat

---------
---------
---------
------4--repeat
--2------
----4----

Guitar2:starts later

-----------------------------------------------------
-----------------------------------------------------
-----------10-----------------------12---------------
-----8------------8----8------10-----------10----12--
--10---10------10---10-----12----12-----12----12-----
-----------------------------------------------------

-----------0----------2-------------------------
-----0----------0-----------3-----0-----3----3--
------------------------------------------------
--2-----2-----2----2-----2-----2-----2-----2----
------------------------------------------------
------------------------------------------------
repeat

---------0---------2---------0-----2----2--
-------------------------------------------
----2---------2---------2------------------
--4---4-----4---4-----4---4-----4-----4----
-------------------------------------------
-------------------------------------------

-----------0----------2-------------------------
-----0----------0-----------3-----0-----3----3--
------------------------------------------------
--2-----2-----2----2-----2-----2-----2-----2----
------------------------------------------------
------------------------------------------------
repeat

-----------
-----------
--------9--
--9--------repeat
----11-----
-----------


CHORUS:

Guitar1:

  Bm  Em         F
--2---0----------1--
--3---0----------1--
--4---0--repeat--2--
--4---2----------3--
--2---2----------3--
------0----------1--

Guitar2:

-----------------------------------------------
-----------------------------------------------
--14--16--------------------14--14--14--repeat-
---------16--14--repeat--15--------------------
-----------------------------------------------
-----------------------------------------------

After this part,play that:

Guitar1:
  G
--15--
--15--
--16--
--17--
------
------


THEN PLAY THE INTRO PART


CHORUS:

Guitar1:

  Bm =20
--2---
--3---
--4---
--4---
--2---
------

Guitar2:

-------------------------
-------------------------
--14--16-----------------
---------16--14--repeat--
-------------------------
-------------------------

Guitar3:

-----------------------------
--15--19--17--15--19--17--15-
-----------------------------
-----------------------------
-----------------------------
-----------------------------


To see a list of my tabs,go to my website:
www.multimania.com/aauuddee
     
Добавлено: 23.10.2013
Другие материалы по этой песне:
  • Аккорды и текст

Страница создана 05.09.2013
http://primanota.ru/trail-of-dead/mistakes-and-regrets-chords.htm
Привет, Гость.
Предлагаем пройти революционный курс по гитаре.
Подарок от PrimaNota.Ru, забирай!