PrimaNota.ru - самый крупный в мире бесплатный архив песенных текстов, аккордов, табулатур и нот


Trail Of Dead - Clair De Lune - таба, видео

Регистрация Запомнить меня
Войти через:  Facebook Google Twitter Vk Yandex Mail.ru

Trail Of Dead - Clair De Lune - таба, видео

Печатать
Просмотров: 84
CLAIR DE LUNE
BY TRAIL OF DEAD (AND YOU WILL KNOW US BY THE)
FROM THE ALBUM MADONNA
2000
----------------------------------------------
Tabbed by AAuuddee@aol.com


INTRO:

Guitar1:
--0--
--5--
--5--repeat
--7--
-----
-----

Guitar2:
  F5  C5  D5
-------------
-------------
------5---7--repeat
--3---5---7--
--3---3---5--
--1----------


VERSE1:

Guitar1:
--0--
--5--
--5--repeat
--7--
-----
-----

Guitar2:
  F5  C5  D5
-------------
-------------
------5---7--repeat
--3---5---7--
--3---3---5--
--1----------

Guitar3:
--------------
--------------
--12---7---9--repeat
--10---5---7--
--10---5---7--
--------------


CHORUS:effects + let ring
---------
---------
-----5~--repeat
--7~-----
---------
---------

here the chords are not played but if you want
to play them, here they are:

  B5 Bb5  A5
-------------
-------------
-------------repeat
--9---8---7--
--9---8---7--
--7---6---5--


VERSE2


CHORUS


POST-CHORUS:

Guitar1:
--0--
--5--
--5--repeat
--7--
-----
-----

Guitar2:
  B5 Bb5  A5         B5 Bb5  Am   =20
--------------------------------
-----------------------------5--
-------------repeat----------5--
--9---8---7----------9---8---7--
--9---8---7----------9---8---7--
--7---6---5----------7---6---5--


ENDING: like a verse


To see a list of my tabs,go to my website:
www.multimania.com/aauuddee
     
Добавлено: 27.08.2013
Другие материалы по этой песне:
  • Аккорды и текст

Страница создана 27.08.2013
http://primanota.ru/trail-of-dead/clair-de-lune-chords.htm
Привет, Гость.
Предлагаем пройти революционный курс по гитаре.
Подарок от PrimaNota.Ru, забирай!