PrimaNota.ru - самый крупный в мире бесплатный архив песенных текстов, аккордов, табулатур и нот


Trail Of Dead - Another Morning Stoner - таба, видео

Регистрация Запомнить меня
Войти через:  Facebook Google Twitter Vk Yandex Mail.ru

Trail Of Dead - Another Morning Stoner - таба, видео

Печатать
Просмотров: 121
Band: ...And You Will Know Us By The Trail of the Dead
Song: Another Morning Stoner
Album: Source Tags and Codes
Thom Mills dustbin_man@hotmail.com

This is just a rough guide, so not perfect...

Intro:
Guitar 1
e||-----------------------------------5---7-5--8-7-5---||
B||-------5----7-5--8-7-5-0--(0)-8/10---8------------0-||
G||-0-7/9---7------------------------------------------||
D||----------------------------------------------------||
A||----------------------------------------------------||
E||----------------------------------------------------||

Guitar 2                    Intro a
e||-x--/---------------------\--x--||
B||-x--/---------------------\--x--||
G||-x--/---use pick scrapes--\--x--||
D||-x--/-----and harmonics---\--x--||
A||-x--/---------------------\--x--||
E||-x--/---------------------\--x--||

Guitar 2 (could be wrong, hard to hear)
Intro b                 Intro c
e||------|-----------------------||
B||------|-----------------------||
G||------|-----------------------||
D||--4---|--4--2--7--9-----------||
A||--4---|--4--2--7--9-----------||
E||--2---|--2--0--5--7-----------||

Verse
Guitar 1 (can't really hear- one of these chords possibly)
e||----------------------------||
B||----7--x--------------------||
G||----x-11--------------------||
D||-9--9--9--------------------||
A||-9--9--9--------------------||
E||-7--7--7--------------------||

Guitar 2      (variation)
e||----------|-x---------------||
B||-7--------|-x---------------||
G||---or-11--|11---------------||
D||----------|-9---------------||
A||----------|-----------------||
E||----------|-----------------||

Fill 1
Both Guitars
e||---------------------------------------------------------------||
B||-7-5---5-(5/7)7-5--------5-(5/7)7-5--------5-(5/7)7-5--8-7-5-0-||
G||-----7------------(5/7)7------------(5/7)7---------------------||
D||---------------------------------------------------------------||
A||---------------------------------------------------------------||
E||---------------------------------------------------------------||

Bridge
Both Guitars
x20          x4           x4
e||-----10-7--|-----------|------------||
B||-8-8-------|-----12-8--|------------||
G||-----------|-9-9-------|-------12-9-||
D||-----------|-----------|-10-10------||
A||-----------|-----------|------------||
E||-----------|-----------|------------||

Outro
Guitar 1
e||-----10-10---7----10-10---7-*feedback*-||
B||-8-8-------8----8-------8--------------||
G||---------------------------------------||
D||---------------------------------------||
A||---------------------------------------||
E||---------------------------------------||

Guitar 2
e||----------------------------||
B||----------------------------||
G||---------*feedback*---------||
D||----------------------------||
A||----------------------------||
E||----------------------------||


(0)= Ghost Note
Layout of Song

Guitar 1
Intro x4
Verse
Fill 1 x1
Verse
Fill 1 x1
Intro x2
Verse
Fill 1 x1
Intro x2
Bridge
Intro x2
Verse
Outro

Guitar 2
Intro a x1
Intro b x1
Intro c x2
Verse
Fill 1  x1
Verse
Fill 1  x1
Intro c x2
Verse
Fill 1 x1
Verse
Fill 1  x1
Intro c x2
Bridge
Intro c x2
Verse
Outro

----
Corrections, need help? email me
Добавлено: 31.03.2012
Другие материалы по этой песне:
  • Аккорды и текст

Страница создана 31.03.2012
http://primanota.ru/trail-of-dead/another-morning-stoner-chords.htm
Привет, Гость.
Предлагаем пройти революционный курс по гитаре.
Подарок от PrimaNota.Ru, забирай!