PrimaNota.ru - самый крупный в мире бесплатный архив песенных текстов, аккордов, табулатур и нот


Tragico Ballet - Caer - таба, видео

Регистрация Запомнить меня
Войти через:  Facebook Google Twitter Vk Yandex Mail.ru

Tragico Ballet - Caer - таба, видео

Печатать
Просмотров: 90
INTRO
   Am               C                Dm
e/-----0----------------3---0-----0--1---0---1---3---/
B/-1-----1-0---0-1--1-----1---1-3------3---3---3---3-/
G/---2-------2--------0------------------------------/
D/-----------------------------------0---------------/
A/-0----------------3--------------------------------/
E/---------------------------------------------------/
    Am
e/-----0---------------------------------------------/
B/-1-----1-0---0-1-----------------------------------/
G/---2-------2---------------------------------------/
D/---------------------------------------------------/
A/-0-------------------------------------------------/
E/---------------------------------------------------/

ESTO DE ARRIBA SE TOCA DOS VECES PERO LA SEGUNDA OCACION SE TOCA ESTO
e/------------------------------------------7-8------/
B/-5--8-6-5--8-10-8-5-6--5-8-6-5--5-6-5-3------------/
G/---------------------------------------------------/

Y CON EL MISMO ARPEGIO DEL INTRO SE CANTA ESTO:
 Am             C
Si, te vi escondida tras de mí
         Dm                   Am
te deslizabas entre ángeles fugaces.
 Am               C
Si, te mentí al decir que no sentí
       Dm                       Am
ese dolor que me quemaba al alejarme.

ESTA PARTE YO IMPROVISO EL ARPEGIO PORKE NO HE SACADO COMO VA
F                   C
Y no es tan fácil decir que no
F                     C
y no es tan fácil rompernos la piel
           Dm              Am
si el corazón ya no tiene fe.

Caer.

ESTO VA EN GUITARRA ACISTICA Y VIOLIN
e/----------------------12-12-10-8-7-5-5-6-5-------------------/
B/-5-6-5--6-8--10-12-13-----------------------5-6-5--10-12-13--/
G/-------------------------------------------------------------/

e/-------------------------------------------------------------/
B/12-10-12--13-15-13-12-13--12-10-8-6-3-5----------------------/
G/-------------------------------------------------------------/

GUITARRA ELECTRICA
e/---5-7-8-8-8/7--7-8-7--7-8-7-5--8-7-----------5-7-8-8/10-8-7-/
B/-5----------------------------------5-6-5---5----------------/
G/-------------------------------------------------------------/
e/-5-7--12-12-12/10-10-10-10/8-8-8-8/7-7-7-7/5-5-7-7--7-5-5----/
B/-------------------------------------------------------------/
G/-------------------------------------------------------------/

ESTO VA EN BAJO
D/-------------------------------------------------------------/
A/----------------8-8-8----------------------------------------/
E/--5-5-5-5-5-5-5----------------------------------------------/


Am                    C
Sirena de miel, lentamente veo tu piel
      Dm                       Am
flagelarse mar adentro arrepentida,
Am                C
ven hacia mí, y atrévete a decir
          Dm                         Am
que no te hace falta la mirada envenenada.


F5                  C5
Y no es tan fácil decir que no
F5                    C5
y no es tan fácil rompernos la piel
           Dm5             G75
si el corazón ya no tiene fe.

  C5            G5          F5          Am5
Caer es como tirar el alma sin poder tocarla
  C5                G5           F5         Am5
Caer nos deja en la carne huecos de dolor y rabia.

GUITARRA ELECTRICA
e/----------------------------------------------------5--------/
B/-1-3-5-5--3-5-3-1-3-1-0-1--0-1-0-3-1-0-3-0-1-3-5--5---5-5-5-5/
G/-------------------------------------------------------------/

e/--------5----------------------------------------------------/
B/-3-5--5---5-5-5-5-3-3--3/1-3-3/5-----------------------------/
G/-------------------------------------------------------------/

C5            G5          F5          Am5
Caer es como tirar el alma sin poder tocarla
  C5                G5           F5         Am5
Caer nos deja en la carne huecos de dolor y rabia.

GUITARRA ELECTRICA
e/-13-12-10--8-7--5-5--7-7--8-7-5------------------------------/
B/-------------------------------------------------------------/
G/-------------------------------------------------------------/

SE TOCA ESTE ARPEGIO NUEVAMENTE
Am               C                Dm
e/-----0----------------3---0-----0--1---0---1---3---/
B/-1-----1-0---0-1--1-----1---1-3------3---3---3---3-/
G/---2-------2--------0------------------------------/
D/-----------------------------------0---------------/
A/-0----------------3--------------------------------/
E/---------------------------------------------------/
    Am
e/-----0---------------------------------------------/
B/-1-----1-0---0-1-----------------------------------/
G/---2-------2---------------------------------------/
D/---------------------------------------------------/
A/-0-------------------------------------------------/
E/---------------------------------------------------/

Y NUEVAMENTE SE CANTA ESTO CON EL ARPEGIO
Am                  C
Y al final no queda nada en las manos,
        Dm                      Am
solo recuerdos y el corazón cansado.
Am                     C
Y solo el tiempo determina
                       Dm              Am
que esta herida no se cura, solo se olvida.

FIN


BUENO  ESPERO KE
LES SIRVA DE LAGO
ESTO KE SAKE
DE TRAGIO BALLET
Y PUES SE LA DEDICO
A UNA AMIGA
KE LA VAMOS A EXTRAÑAR
UN MONTON Y KE SE FUE
PARA USA
Y ESA PERSONA SE LLAMA
SANDY

TAMBIEN PARA
TODA LA BANDA DEL IMCED
MORELIA ALGUNAS PERSONAS SON:
-ANDY
-LIZ
-BLAN'K
-MARIANA
-VICTOR
-PEDRO EKIWA

MI NOMBRE ES IVAN
Y PUES PARA CUALQUIER COSA KE NO
COMPRENDAN AKI LES DEJO MI CORREO
keondaogt@

SUERTE CON LA CANCION
Добавлено: 29.04.2016
Вам также может быть интересно:
Другие материалы по этой песне:
  • Аккорды и текст

Страница создана 29.04.2016
http://primanota.ru/tragico-ballet/caer-chords.htm
Привет, Гость.
Предлагаем пройти революционный курс по гитаре.
Подарок от PrimaNota.Ru, забирай!