PrimaNota.ru - самый крупный в мире бесплатный архив песенных текстов, аккордов, табулатур и нот


Tragically Hip - Locked In The Trunk Of A Car - аккорды и текст, таба, бас-таба, видео

Регистрация Запомнить меня
Войти через:  Facebook Google Twitter Vk Yandex Mail.ru

Tragically Hip - Locked In The Trunk Of A Car - аккорды и текст, таба, бас-таба, видео

Печатать
Просмотров: 84
Locked In The Trunk Of A Car
Tragically Hip
Tragically Hip - Locked In The Trunk Of A Car


Chords (barr):

    B    D    E
E|---------------------|
B|---------------------|
G|--4----7----9--------|
D|--4----7----9--------|
A|--2----5----7--------|
E|---------------------|

B-Riff:                        

E|----------------------------------|     
B|----------------------------------|     
G|-4--x--x--7/6--x--4--x--2/x4--4---|   
D|-4--x--x--7/6--x--4--x--2/x4--4---|   
A|-2--x--x--5/4--x--2--x--0/x2--2---|   
E|----------------------------------|     

Picking part (twice clean, then under intro lyrics) 

E|----0-----0----------------------------0-----0------------------------|
B|------3----------------------------------3----------------------------|
G|------------2----4--2--4-2---------------------2----4--2--4-2---------|
D|------------0--------------2-------------------0--------------0-------|
A|--2-------------------------------------------------------------------|
E|-------------------------------------0--------------------------------|


INTRO (with picking part or you can play the 'FILL' part from the end)

     B               D                     E
They don't know how old I am, they found armor in my belly
         B       D           E     
From the 16th century, conquistador I think 
     B               D                     E
They don't know how old I am, they found armor in my belly
D               E                    B 
Passion out a machine revving tension 
D               E                    B
Lashing out at machine revving tension 
D               E                    B
Rushing by the machine revving tension


B-Riff:

Morning broke out the backside of a truck stop 
End of the line a real rainbow likening luck stop 
E                                             B-Riff
Well you could say I became chronilogically fucked up
E                                        B-Riff 
Put ten bucks in just to get the tank topped off

B-Riff:

Where I found a place that's dark and it's rotted
It's a cool sweet kinda place where the copters won't spot it 
E                                                  B-Riff
And I destroyed the map I even thought I forgot it 
         D     E                      B-Riff
However every day I'm dumpin' the body
     D                    E               B-Riff   
It's better for us if you don't understand 
     D                    E               B-Riff   
It's better for me if you don't understand 


SOLO - (B-Riff under 5X}


B-Riff:

Then I found a place that's dark and it's rotted 
It's a cool sweet kinda place where the copters won't spot it
E                                             B-Riff
And I destroyed the map that I carefully dotted

        D     E                    B-Riff          
However everyday I'm dumpin' the body
        D                   E              B-Riff 
I'd be better for us if you don't understand 
        D                   E              B-Riff
I'd be better for us if you don't understand
        D                   E              B-Riff 
I'd be better for me if you don't understand

FILL:  

e|--------------------------------------|
b|---5-3-5-------------5-3-5------------|
g|---------2-4-2-4-2---------2-4-2-4-2--|
d|--------------------------------------|
a|-2------------------------------------|
e|-------------------0------------------|


       B - D - E
Let Me out (sings this with solo).. (X 7)  


END
Добавлено: 18.07.2015
Другие материалы по этой песне:

Страница создана 26.02.2012
http://primanota.ru/tragically-hip/locked-in-the-trunk-of-a-car-chords.htm
Привет, Гость.
Предлагаем пройти революционный курс по гитаре.
Подарок от PrimaNota.Ru, забирай!