PrimaNota.ru - самый крупный в мире бесплатный архив песенных текстов, аккордов, табулатур и нот


Tragically Hip - Grace Too - аккорды и текст, таба, бас-таба, видео

Регистрация Запомнить меня
Войти через:  Facebook Google Twitter Vk Yandex Mail.ru

Tragically Hip - Grace Too - аккорды и текст, таба, бас-таба, видео

Печатать
Просмотров: 224
Grace Too
Tragically Hip
		   This is the same file as posted before but it now has some corrections.

Grace Too - The Tragically Hip
From the album Day For Night - 1994

This is just a quick tab and probably not too acurate since I don't have
my guitar with me right now....you get the drift.

I think the best way to get the sound is to use a distorted guitar using
the neck pickup.

E---------------------------------------------------------------
B---------------------------------------------------------------
G----------------------------------------------2p1--------------
D----6-9-9--9---9-9---9-7-6--6---6-6----0h2--------4---------1--
A--7-----7--7---7-7---7-7-7--7---7-7-----------------2h4-2------
E-------------0-----0----------0------0-----0-0------------0----

E---------------------------------------------------------------
B---------------------------------------------------------------
G----------------------------------------------2p1--------------
D----6-9-9--9---9-9---9-7-6--6---6-6----0h2--------4-2h4p2------
A--7-----7--7---7-7---7-7-7--7---7-7----------------------------
E-------------0-----0----------0------0-----0-0-----------------


Rhy. Fig. 1 (Played under the verses)

D---------------------------
A----7-7-7----5-5-5----4-2--  Repeat
E--0-0-0-0--0-0-0-0--0-0-0--

Rhy. Fig. 2 (Bridge)

D------------------
A----7--5--4-------  Repeat
E-0----------3b4p0-

Chorus:

G--6-6--6-6/8--8-1--
D--7-7--7-7/9--9-2--
A--7-7--7-7/9--9-2--
E--5-5--5-5/7--7-0--

That's the general idea of the song. You'll get the rhytmn down right
when you listen to the disk

Gord Murdoch
jm94bu@badger.ac.BrockU.CA


------------------------------------------------------------------------------
Gord Murdoch			     "I've got a genius for evil that
jm94bu@badger.ac.BrockU.CA	      makes me common."
Brock University
St. Catharines, Ontario		      Eldorado - Tragically Hip
------------------------------------------------------------------------------     
Добавлено: 22.11.2013
Другие материалы по этой песне:
  • Аккорды и текст

Страница создана 02.03.2012
http://primanota.ru/tragically-hip/grace-too-chords.htm
Привет, Гость.
Предлагаем пройти революционный курс по гитаре.
Подарок от PrimaNota.Ru, забирай!