PrimaNota.ru - самый крупный в мире бесплатный архив песенных текстов, аккордов, табулатур и нот


Tragically Hip - Fifty Mission Cup - аккорды и текст, таба, видео

Регистрация Запомнить меня
Войти через:  Facebook Google Twitter Vk Yandex Mail.ru

Tragically Hip - Fifty Mission Cup - аккорды и текст, таба, видео

Печатать
Просмотров: 75
Fifty Mission Cup
Tragically Hip
		   Fifty Mission Cap by Tragically Hip
of of Fully Completely

This song is a true song story about Bill Barilko

Tabbed by CyberBry		659513@ican.net                http://members.tripod.com/~CyberBry

Intro/Verse  riff

-------------------------------------------------------------------
-------------------------------------------------------------------
---9--------9-7---------7-5--------5-7---------7-9------------
---9--------9-7---------7-5--------5-7---------7-9------------         Repeat
---7--------7-5---------5-3--------3-5---------5-7------------
-----0-0-0------0-0-0------0-0-0------0-0-0------0-0-0-----

Verse 1:(verse riff)

Bill Barilko disappeared, that summer,
he was on a fishing trip,
The last goal he ever scored, won the leafs the cup,
They didn't win another, 'till 1962, the year he was discovered,
I stole this from a hockey card,

B
And he took up under

CHORUS:

[this riff will be called riff2 ]
---------------------------
---------------------------
11-11\-9--9------------  [listen to the song for the rhythm of this riff]
11-11\-9--9------------
-9---9\-7--7------------
---------------------------

In my fifty mission cap,
I worked it in, I worked it in to look like that,
It's my fifty mission cap,
             B A
it's his fifty mission cap

B                                               A
And I worked it in (worked it in)
                                        B                             A
and I worked it it, and I worked it out (worked it in),

to look like that,
B                        A
and I worked it in, to look like that.

[back to verse/intro riff]

Verse 2:(verse/intro riff)

Bill Barilko disapeared, that summer, (1959)
he was on a fishing trip,(in a plane)
The last goal he ever scored, (in overtime)
won the Leafs the cup,
they didn't win another,
'till 1962, the year he was discovered,

REPEAT CHORUS

SOLO (it's my fifty mission cup [x?])

[the last chord is a high E]     
Добавлено: 22.06.2013
Другие материалы по этой песне:
  • Аккорды и текст

Страница создана 07.03.2012
http://primanota.ru/tragically-hip/fifty-mission-cup-chords.htm
Привет, Гость.
Предлагаем пройти революционный курс по гитаре.
Подарок от PrimaNota.Ru, забирай!