PrimaNota.ru - самый крупный в мире бесплатный архив песенных текстов, аккордов, табулатур и нот


Tragically Hip - Fifty Mission Cap - аккорды и текст, видео

Регистрация Запомнить меня
Войти через:  Facebook Google Twitter Vk Yandex Mail.ru

Tragically Hip - Fifty Mission Cap - аккорды и текст, видео

Печатать
Просмотров: 74
Уроки эстрадного вокала в Санкт-Петербурге
Fifty Mission Cap
Tragically Hip
"Bill Barilko...disappeared.........that summer....."
"He was on.....a fishing.......trip"
|------------------------------------------------------------|
|------------------------------------------------------------|
|--9---------9-7---------7-5---------5-7---------7-9---------|
|--9---------9-7---------7-5---------5-7---------7-9---------|
|--7---------7-5---------5-3---------3-5---------5-7---------|
|----0-0-0-0-----0-0-0-0-----0-0-0-0-----0-0-0-0-----0-0-0-0-|

"The last goal....he ever scored....won the leafs the cup"
|----------------------------------------------------|
|----------------------------------------------------|
|--5---------5-7---------7-9---------9-7---------7-9-|
|--5---------5-7---------7-7---------7-7---------7-9-|
|----0-0-0-0-----0-0-0-0-----0-0-0-0-----0-0-0-0---7-|
|----------------------------------------------------|

|---------------------------------------------------------|
|---------------------------------------------------------|
|---------9-7---------7-5---------5-7---------7-9---------|
|---------9-7---------7-5---------5-7---------7-9---------|
|---------7-5---------5-3---------3-5---------5-7---------|
|-0-0-0-0-----0-0-0-0-----0-0-0-0-----0-0-0-0-----0-0-0-0-|

"They didn't win another, til 1962, the year he was discovered"

|----------------------------------------------------|
|----------------------------------------------------|
|--5---------5-7---------7-9---------9-7---------7-9-|
|--5---------5-7---------7-7---------7-7---------7-9-|
|----0-0-0-0-----0-0-0-0-----0-0-0-0-----0-0-0-0---7-|
|----------------------------------------------------|

|---------------------------------------------------------|
|---------------------------------------------------------|
|---------9-7---------7-5---------5-7---------7-9---------|
|---------9-7---------7-5---------5-7---------7-9---------|
|---------7-5---------5-3---------3-5---------5-7---------|
|-0-0-0-0-----0-0-0-0-----0-0-0-0-----0-0-0-0-----0-0-0-0-|

"I stole this from a hockey card, I keep tucked up under"

|--------------------------------3-3-2-2-|
|--------------------------------3-3-3-3-|
|--5---------5-7--------7--------0-0-2-2-|
|--5---------5-7--------7--------0-0-----|
|----0-0-0-0-----0-0-0-0---------2-2-----|
|--------------------------------3-3-----|

"My fifty mission cap"

|---------------------------------|
|---------------------------------|
|--11-11\-9-9-9-9-9-9---4-2-2-2-2-|
|--11-11\-9-9-9-9-9-9---4-2-2-2-2-|
|--9--9-\-7-7-7-7-7-7---2-0-0-0-0-|
|---------------------------------|

"I worked it in"
"I worked it in to look like that"

|---------------------------------|
|---------------------------------|
|--11-11\-9-9-9-9-9-9---4-2-2-2-2-|
|--11-11\-9-9-9-9-9-9---4-2-2-2-2-|
|--9--9-\-7-7-7-7-7-7---2-0-0-0-0-|
|---------------------------------|

"I worked it in, I worked it in to look like that"

|----------------|
|----------------|
|--4-4-4-2-2-2-2-|
|--4-4-4-2-2-2-2-|
|--2-2-2-0-0-0-0-|
|----------------|

"I worked it in, to look like that"
|--------------------------|
|--------------------------|
|--4-4-4-7-7-7-7-9---------|
|--4-4-4-7-7-7-7-9---------|
|--2-2-2-5-5-5-5-7---------|
|------------------0-0-0-0-|  back to opening riff

Ending
"It's my fifty mission cap"
|----------------------------------------|
|----------------------------------------|
|--9-9-9-9-9-9-9-9-9-9-9-9-7-7-7-7-7-7-7-|
|--9-9-9-9-9-9-9-9-9-9-9-9-7-7-7-7-7-7-7-|
|--7-7-7-7-7-7-7-7-7-7-7-7-5-5-5-5-5-5-5-|
|----------------------------------------|

"My fifty mission caaaa-ah-aap"

|---------------------------------|
|---------------------------------|
|--9-9-9-9-9-9-9-9-9-9-9-9--------|
|--9-9-9-9-9-9-9-9-9-9-9-9--------|
|--7-7-7-7-7-7-7-7-7-7-7-7--------|
|---------------------------------|

Repeat ending twice

Second Verse:
Bill Barilko disapeared, that summer, (1959)
he was on a fishing trip,(in a plane)
The last goal he ever scored, (in overtime)
won the Leafs the cup,
they didn't win another,
'till 1962, the year he was discovered,
Добавлено: 20.12.2015
Другие материалы по этой песне:
  • Аккорды и текст

Страница создана 20.12.2015
http://primanota.ru/tragically-hip/fifty-mission-cap-2-chords.htm
Привет, Гость.
Предлагаем пройти революционный курс по гитаре.
Подарок от PrimaNota.Ru, забирай!