PrimaNota.ru - самый крупный в мире бесплатный архив песенных текстов, аккордов, табулатур и нот


Tragically Hip - Family Band - аккорды и текст, таба, видео

Регистрация Запомнить меня
Войти через:  Facebook Google Twitter Vk Yandex Mail.ru

Tragically Hip - Family Band - аккорды и текст, таба, видео

Печатать
Просмотров: 108
Family Band
Tragically Hip
-------------------------------------------------------------------------------
                       FAMILY BAND – Tragically Hip
-------------------------------------------------------------------------------
Tabbed by: Pat Malavi
pat.malavi@gmail.com

Tuning: Standard

Chords (all are partial bar chords):
C  x355xx
G  355xxx
F  133xxx
D  x577xx
F 

Intro:

Guitar 1 (repeat many times): C

Guitar 2 riff (repeat three times):
e|---------------------------------------------------------------------------|
B|---------------------------------------------------------------------------|
G|--9-9-9-9---7-7-7-7---12-12-12-12---9-9-9-9--------------------------------|
D|---------------------------------------------------------------------------|
A|--7-7-7-7---5-5-5-5---10-10-10-10---7-7-7-7--------------------------------|
E|---------------------------------------------------------------------------|

Guitar 2 riff (last time):
e|---------------------------------------------------------------------------|
B|---------------------------------------------------------------------------|
G|--9-9-9-9---7-7-7-7---5-5-5-5-5-5-5-5--------------------------------------|
D|---------------------------------------------------------------------------|
A|--7-7-7-7---5-5-5-5---3-3-3-3-3-3-3-3--------------------------------------|
E|---------------------------------------------------------------------------|


Verse 1:
C
I can't smell a rat when it's all rat
C
I can't find one in an elevator
C
My mind doesn't work so bad
C
But I am a poor exterminator, that's right




C
I can't destroy entirely
C
Or annihilate a little later
C
I can't see the entire city
C
But I'm not a bad exterminator


Chorus:
C         G      F   C
I'm just a shade shy of true wickedness
     G      F            C     
I'm a shade shy of truly loving it, yeah
G         F                C                G
There are other things I'd rather be doing
F       
Even nothing
     D
Even nothing
     C
Even nothing with you





Verse 2:
C
One day I'll make some honest rock n roll
C
Full of handclaps and gang vocals
C
I'm gonna get all the children involved
C
We're gonna get lost on all you locals


Chorus:
C         G      F   C
We'll be a shade shy of true wickedness
          G      F            C     
We'll be a shade shy of truly loving this, yeah
G         F            C                           G
There are other things we'll rather be doing, sure
F       
Even nothing
     D
Even nothing
     C
Even nothing with you


Bridge:
D
We'll load out through the snow through 
F
Small groups of people smoking
C
Hey, get that kick drum loaded
G                        D
Into the backseat folded down

We'll go virtually unnoticed
F                                         C
What's gripping the city ain't hitting the town





Chorus:
C         G      F   C
We'll be a shade shy of true wickedness
          G      F            C     
We'll be a shade shy of truly loving this, yeah
G         F            C                     
There are other things that we'll surely miss


Bridge:
D
We'll load out through the snow through 
F
Small groups of people smoking
C
Hey, get that kick drum loaded
G                        D
Into the backseat folded down

We'll go perfectly unnoticed
F                                         C
What's gripping the city ain't hitting the town

Добавлено: 08.03.2012
Другие материалы по этой песне:
  • Аккорды и текст

Страница создана 08.03.2012
http://primanota.ru/tragically-hip/family-band-chords.htm
Привет, Гость.
Предлагаем пройти революционный курс по гитаре.
Подарок от PrimaNota.Ru, забирай!