PrimaNota.ru - самый крупный в мире бесплатный архив песенных текстов, аккордов, табулатур и нот


Traffic - Many A Mile To Freedom - аккорды и текст, видео

Регистрация Запомнить меня
Войти через:  Facebook Google Twitter Vk Yandex Mail.ru

Traffic - Many A Mile To Freedom - аккорды и текст, видео

Печатать
Просмотров: 91
Many A Mile To Freedom
Traffic


Many A Mile To Freedom - Traffic (in C)

Intro: G and Gsus back and forth a few times

[C]Many a mile to [Fm]freedom, [Eb]many a smile to [Gsus]tell
[C]Ask my bluebird to [Fm]sing you, [Eb]from the heart of a [Gsus]wishing well
[Fm]Call all my reindeer to [Eb]graze here, [D7]call all my grain to [G]grow
Then [F walkdown*]together we flow like the river[C]
Then [Bb]together we melt like the [Ab]snow  [Bb][Ab][G][Gsus]

Many a thought unanswered, many a tale to tell
Ask my bluebird to sing you, from the heart of a wishing well
If you should ask me to give you the reason for life that we know
Then together we flow like the river
And together we melt like the snow

Many a mile to freedom, many a smile to tell
Ask my bluebird to sing you, from the heart of a wishing well
If you should ask me to give you the reason for life that we know
Then together we flow like the river
Then together we melt like the snow

A few more miles to go
Miles to freedom


(In A)

INTRO E Esus

[A]Many a mile to [Dm]freedom, [C]many a smile to [Esus]tell
[A]Ask my bluebird to [Dm]sing you, [C]from the heart of a [Esus]wishing well
[Dm]Call all my reindeer to [C]graze here, [B7]call all my grain to [E]grow
Then [D*]together we flow like the river[A]
Then [G]together we melt like the [F]snow   [G] [F] [E][Esus]


* in C, the walk-down from F to C is SORT OF like this
-------(1)-------(0)-----------(1)------(0)-----------------
--------1---------1-------------1--------1------------------
------2---2-----0---0---------2---2--------2----------------
----3---------2-------------0---------2---------------------
------------------------------------3-----------------------
------------------------------------------------------------
to-gether we  flow like the river        (C)

* In A, the walk-down in from D to A is SORT OF like this (barre 2nd fret)
------------------------------------------------------------
------(3)--------(3)-----------(3)------------(2)-----------
-------2----------3-------------2--------------2------------
-----4----------3-------------4--------------2--------------
---5-----5----4-----4-------2------2-------0----------------
------------------------------------------------------------
to-gether we  flow like the river         (A)

Of course you can finger this different ways, the feel of it comes from the bass note going down.

By Esus I mean something like this, hope that's right 

-----0------
-----0------
-----2------
-----2------
-----2------
-----0------



that's my take/fake on it anyhow


Добавлено: 18.08.2013
Другие материалы по этой песне:
  • Аккорды и текст

Страница создана 12.03.2012
http://primanota.ru/traffic/many-a-mile-to-freedom-chords.htm
Привет, Гость.
Предлагаем пройти революционный курс по гитаре.
Подарок от PrimaNota.Ru, забирай!