PrimaNota.ru - самый крупный в мире бесплатный архив песенных текстов, аккордов, табулатур и нот


Traffic Moving Well - Wont Give Up - таба, видео

Регистрация Запомнить меня
Войти через:  Facebook Google Twitter Vk Yandex Mail.ru

Traffic Moving Well - Wont Give Up - таба, видео

Печатать
Просмотров: 45
-------------------------------------------------------------------------------
Tabbed by: John DeSenso
E-mail:

Tuning: Standard
    A         D         A         D
e|------------3-------------------3------------------------------------------------|
B|--2---------2---------2---------2------------------------------------------------|
G|--2---------3---------2---------3------------------------------------------------|
D|--2-------------------2----------------------------------------------------------|
A|---------------------------------------------------------------------------------|
E|---------------------------------------------------------------------------------|
     A       Verse           D        A                      D
e|---------------------------3-------------------------------3---------------------|
B|---2-----------------------2--------2----------------------2---------------------|
G|---2-----------------------3--------2----------------------3-------x 3-----------|
D|---2--------------------------------2--------------------------------------------|
A|---------------------------------------------------------------------------------|
E|---------------------------------------------------------------------------------|
     C   Pre Chorus   G      D        C           G      D
e|---3----------------0------3--------3------------------3---------------------------|
B|---3----------------3------2--------3-----------3------2---------------------------|
G|---0----------------0------3--------0-----------0------3---------------------------|
D|---2----------------0------ --------2-----------0----------------------------------|
A|---3----------------2---------------3-----------2----------------------------------|
E|--------------------3---------------------------3----------------------------------|
  Chorus  G/D     A/D              C
e|---------3-------3--------3------0-------------------------------------------------|
B|---------2-------2--------3------3-------------------------------------------------|
G|---------3-------3--------0------0-----x-2-----------------------------------------|
D|---------x-------x--------0------2-------------------------------------------------|
A|---------x-------0--------2------3-------------------------------------------------|
E|---------3-------------------------------------------------------------------------|
     Verse   A
e|-------------------------3---------------------------3---------------------------|
B|-----------2-------------2-------------2-------------2---------------------------|
G|-----------2-------------3-------------2-------------3---------------------------|
D|-----------2---------------------------2-----------------------------------------|
A|---------------------------------------------------------------------------------|
E|---------------------------------------------------------------------------------|
   Solo/Rhythm  C       G      D
e|--------------3-------0------3-----------------------------------------------------|
B|--------------3-------3------2-----------------------------------------------------|
G|--------------0-------0------3--------x 4------------------------------------------|
D|--------------2-------0------------------------------------------------------------|
A|--------------3-------2------------------------------------------------------------|
E|----------------------3------------------------------------------------------------|
  Pre chorus   C        G      D
e|-------------3--------0------3-----------------------------------------------------|
B|-------------3--------3------2-----------------------------------------------------|
G|-------------0--------0------3-------------x 4-------------------------------------|
D|-------------2--------0------------------------------------------------------------|
A|-------------3--------2------------------------------------------------------------|
E|----------------------3------------------------------------------------------------|
   Chorus  G/D  A/D          C
e|----------3----3-----3-----3--------------------------------------------------------|
B|----------2----2-----3-----3--------------------------------------------------------|
G|----------3----3-----0-----0--------x 4---------------------------------------------|
D|----------x----x-----0-----2--------------------------------------------------------|
A|----------x----0-----2-----3--------------------------------------------------------|
E|----------3-------------------------------------------------------------------------|


************************************

| /   slide up
| \   slide down
| h   hammer-on
| p   pull-off
| ~   vibrato
| +   harmonic
| x   Mute note
| b   Bend
| pb  Pre-bend
| br  Bend release
| pbr Pre-bend release
| brb Bend release bend

************************************
Добавлено: 17.06.2013
Другие материалы по этой песне:
  • Аккорды и текст

Страница создана 17.06.2013
http://primanota.ru/traffic-moving-well/wont-give-up-chords.htm
Привет, Гость.
Предлагаем пройти революционный курс по гитаре.
Подарок от PrimaNota.Ru, забирай!