PrimaNota.ru - самый крупный в мире бесплатный архив песенных текстов, аккордов, табулатур и нот


Traditional - What a friend we have in jesus - таба, видео

Регистрация Запомнить меня
Войти через:  Facebook Google Twitter Vk Yandex Mail.ru

Traditional - What a friend we have in jesus - таба, видео

Печатать
Просмотров: 99
Уроки эстрадного вокала в Санкт-Петербурге




                         What A Friend We Have In Jesus
                          Open D Tuning (D A D F# A D)

|---------0----4----2----0--------|-------0-------0-------0------|
|----0-------------------0----4---|-------0-------0-------0------|
|----0---------3----1----0----3---|-------0-------5-------3------|
|----0---------4----2----0----2---|---------------5-------4------|
|-----------------------------0---|------------------------------|
|----0----------------------------|-------0----------------------|

    .Q    E    E    E    E    E           H       Q       Q


|---------0---------0--------|----7----7----9----7---------0---|
|---------0---------0--------|----9----9---10----9----9----0---|
|---------1---------0--------|----8----8----8----8----8----0---|
|---------2---------0--------|------------------------0--------|
|----------------------------|---------------------------------|
|----------------------------|----0----------------------------|

          Q        .H            .Q    E    E    E    E    E


|-------0----------------------|---------0----4---------7--------|
|-------2-------2--------------|----0----0----5----5----9----9---|
|-------1-------1--------------|----0----0----3----3----8----8---|
|-------0-------0--------------|----0----0---------0---------0---|
|-------2-------2--------------|---------------------------------|
|------------------------------|----0----------------------------|

        H       Q       Q          .Q    E    E    E    E    E


|----------------------------|----7----7----9----7---------0---|
|---------7------------------|----9----9---10----9----9----0---|
|---------7------------------|----8----8----8----8----8----0---|
|---------7------------------|------------------------0--------|
|----------------------------|---------------------------------|
|---------7------------------|----0----------------------------|

         .H         Q            .Q    E    E    E    E    E


|-------0----------------------|---------0----4----2----0--------|
|-------2-------2--------------|----0-------------------0----4---|
|-------1-------1--------------|----0---------3----1----0----3---|
|-------0-------0--------------|----0---------4----2----0----2---|
|-------2-------2--------------|-----------------------------0---|
|------------------------------|----0----------------------------|

        H       Q       Q          .Q    E    E    E    E    E


|---------0------------------|----2----1----2----4----5--------|
|---------0------------------|----0---------0---------5----7---|
|---------0------------------|----1---------1---------5----7---|
|---------0------------------|----2---------2---------5----7---|
|----------------------------|---------------------------------|
|---------0------------------|------------------------5----7---|

          H         H            .Q    E    E    E    E    E


|-------4-------7--------------|----9----9----7----4----5----4---|
|-------0-------5--------------|----5---------0---------5----0---|
|-------0-------0--------------|----5---------0---------5----0---|
|------------------------------|---------------------------------|
|------------------------------|---------------------------------|
|-------0-------0--------------|----5---------0---------5----0---|

        H       Q       Q          .Q    E    E    E    E    E


|----------------------------|----7----7----9----7---------0---|
|---------7------------------|----9----9---10----9----9----0---|
|---------7------------------|----8----8----8----8----8----0---|
|---------7------------------|------------------------0--------|
|----------------------------|---------------------------------|
|---------7------------------|----0----------------------------|

          H         H            .Q    E    E    E    E    E


|-------0----------------------|---------0----4----2----0--------|
|-------2-------2--------------|----0-------------------0----4---|
|-------1-------1--------------|----0---------3----1----0----3---|
|-------0-------0--------------|----0---------4----2----0----2---|
|-------2-------2--------------|-----------------------------0---|
|------------------------------|----0----------------------------|

        H       Q       Q          .Q    E    E    E    E    E


|---------0------------------|----7---------7----9----7---------0---|
|---------0------------------|----5--------------7---------9--------|
|---------0------------------|----0----7---------6---------6--------|
|---------0------------------|----0--------------0---------0--------|
|----------------------------|--------------------------------------|
|---------0------------------|-----------------------------0--------|

          H         H             Q    E    E    E    E    E    E


|---------------------------------|---------0----4----0----7--------|
|------5-------------0------------|----0---------0----0----9----9---|
|------5------5-------------5-----|----0---------3----0----8----8---|
|------5--------------------------|----0---------0--------------0---|
|---------------------------------|---------------------------------|
|------5--------------------------|----0----------------------------|

       H      Q      E      E         .Q    E    E    E    E    E


|----------------------------|----7---------7----9----7---------0---|
|---------7------------------|----5--------------7---------9--------|
|---------7------------------|----0----7---------6---------6--------|
|---------7------------------|----0--------------0---------0--------|
|----------------------------|--------------------------------------|
|---------7------------------|-----------------------------0--------|

         .H         Q             Q    E    E    E    E    E    E


|----------------------------|---------0----4----2----0--------|
|---------5---------5--------|----0-------------------0----4---|
|---------5---------5--------|----0---------3----1----0----3---|
|---------5---------6--------|----0---------4----2----0----2---|
|----------------------------|-----------------------------0---|
|---------5---------6--------|----0----------------------------|

          H         H            .Q    E    E    E    E    E


|---------0------------------|----2----1----2----4----5----2---|
|---------0------------------|----0------------------------0---|
|---------0------------------|----1----1----1----3----5----1---|
|----------------------------|----2---------2----4----5----2---|
|----------------------------|---------------------------------|
|---------0------------------|---------------------------------|

          H         H            .Q    E    E    E    E    E


|-------4-------7--------------|----9----9----7------------------|
|-------5-------9--------------|----5---------9----9---10----9---|
|-------3-------8--------------|----5---------8------------------|
|-------4-------7--------------|--------------7------------------|
|------------------------------|---------------------------------|
|------------------------------|----5----------------------------|

        H       Q       Q          .Q    E    E    E    E    E


|-------------------7--------|----7---------7----9----7---------0---|
|---------7---------7--------|----5--------------7---------9--------|
|---------7---------7--------|----0----7---------6---------6--------|
|---------5------------------|----0--------------0---------0--------|
|---------0------------------|--------------------------------------|
|----------------------------|-----------------------------0--------|

          H         H             Q    E    E    E    E    E    E


|-----------------------6------|---------0----4----2----0--------|
|-------5-------5-------5------|----0-------------------0----4---|
|-------5-------5-------5------|----0---------3----1----0----3---|
|-------5-------6--------------|----0---------4----2----0----2---|
|------------------------------|-----------------------------0---|
|-------5-------6--------------|----0----------------------------|

        H       Q       Q          .Q    E    E    E    E    E


|-------0-------0-------0------|----0----0-----------------------|
|-------0-------0-------0------|----0----0-----------------------|
|-------0-------5-------3------|----1----0-----------------------|
|---------------5-------4------|----2----0--------------4----7---|
|------------------------------|-------------------5-------------|
|-------0----------------------|--------------0------------------|

        H       Q       Q           Q    Q    E    E    E    E


|-----------------7----12----16----|
|-----------9----------------12----|
|-----8-----------------------0----|
|----------------------------------|
|----------------------------------|
|-----------------------------0----|

      E     E     E     E     H



(W)hole (H)alf (Q)uarter (E)ighth
(S)ixteenth (T)hirtysecond sixty(F)ourth
(.)dotted (/)triplet (-)tie


Arranged By MartyPlaysMusic

http://youtube.com/watchv=4W1ATMjrN9w

Feel free to perform, change, improve, etc. as you see fit.


Добавлено: 21.01.2014
Другие материалы по этой песне:
  • Аккорды и текст

Страница создана 21.01.2014
http://primanota.ru/traditional/what-a-friend-we-have-in-jesus-chords.htm
Привет, Гость.
Предлагаем пройти революционный курс по гитаре.
Подарок от PrimaNota.Ru, забирай!