PrimaNota.ru - самый крупный в мире бесплатный архив песенных текстов, аккордов, табулатур и нот


Traditional - Maoz Tzur - таба, видео

Регистрация Запомнить меня
Войти через:  Facebook Google Twitter Vk Yandex Mail.ru

Traditional - Maoz Tzur - таба, видео

Печатать
Просмотров: 106
-------------------------------------------------------------------------------
                             Maoz Tzur - Traditional
-------------------------------------------------------------------------------
Tabbed by: Randy Urist
E-mail: randy.urist@gmail.com

Tuning: Standard

e|-------------------------------0------------------
B|-------------1--0--------3--3--------0--1--0------
G|----0-----0--------2--0-----------2-----------2--0
D|-------0------------------------------------------
A|--------------------------------------------------
E|--------------------------------------------------

e|-------------------------------0------------------
B|-------------1--0--------3--3--------0--1--0------
G|----0-----0--------2--0-----------2-----------2--0
D|-------0------------------------------------------
A|--------------------------------------------------
E|--------------------------------------------------

e|-------------0--2--3-----3--2--0------------------
B|----3--3--3-----------3-----------3--3--1--0--1---
G|-------------------------------------------------2
D|--------------------------------------------------
A|--------------------------------------------------
E|--------------------------------------------------

e|-------------0-----------------0---------------
B|----0--1--3--------0--1--0--------3--1--0--1--3
G|----------------2-----------0------------------
D|-----------------------------------------------
A|-----------------------------------------------
E|-----------------------------------------------

e|-------------0-----------------0---------------
B|----0--1--3--------0--1--0--------3--1--0------
G|----------------2-----------0--------------2--0
D|-----------------------------------------------
A|-----------------------------------------------
E|-----------------------------------------------
Добавлено: 30.05.2015
Другие материалы по этой песне:
  • Аккорды и текст

Страница создана 30.05.2015
http://primanota.ru/traditional/maoz-tzur-chords.htm
Привет, Гость.
Предлагаем пройти революционный курс по гитаре.
Подарок от PrimaNota.Ru, забирай!