PrimaNota.ru - самый крупный в мире бесплатный архив песенных текстов, аккордов, табулатур и нот


Traditional - In The Pines - аккорды и текст, видео

Регистрация Запомнить меня
Войти через:  Facebook Google Twitter Vk Yandex Mail.ru

Traditional - In The Pines - аккорды и текст, видео

Печатать
Просмотров: 186
Уроки эстрадного вокала в Санкт-Петербурге
In The Pines
Traditional
Formatted for easy reading and relatively constant scroll rate for iPad

  EADGBE
  ------
G 320003   G7 320001   C x02220   D xx0323 

G 355433   G7 353433   C x35553   D x57775

(Waltz)

Intro:

              G            G7           C            G
E|------------|------------|--------0---|------------|------------|
B|-------0----|------------|-3--------3-|-1-----1--0-|-0----------|
G|----------2-|-0-----0--0-|------------|------------|---2-0--0---|
D|------------|------------|------------|------------|------------|
A|------------|------------|------------|------------|------------|
E|------------|------------|------------|-------------------------|

 G            D            G            G 
E|----------0-|------------|------------|------------|
B|-0-3----3---|-0-----0----|------------|------------|
G|------------|---2------2-|--0---------|------------|
D|------------|------------|------------|------------|
A|------------|------------|------------|------------|
E|------------|------------|------------|------------|

G   G7

C   G

G   D

G   G


Chorus:

       G            G7
In the pines,in the pines,
          C         G
where the sun never shines,
        G               D         G
And you shiver when the cold wind blows.
G        G7
Whoo-hoo whoohoo  
C    G 
ooh  ooh
     D    G
ooh, ooh, ooh


Verse 1: 
    G       G7      C    G
The longest train I ever saw, 
     G         D       G 
went down that Georgia line.
    G      G7        C     G
The engine passed at six o clock, 
            D            G
and the cab passed by at nine.


Chorus:

       G            G7
In the pines,in the pines,
          C         G
where the sun never shines,
        G               D         G
And you shiver when the cold wind blows.
G        G7
Whoo-hoo whoohoo  
C    G 
ooh  ooh
     D    G
ooh, ooh, ooh


Verse 2:
  G         G7             C       G
I asked my captain for the time of day, 
   G       D                 G
he said he throwed his watch away.
  G          G7               C     G         
A long steel rail and a short cross tie, 
          D        G
I'm on my way back home.


Chorus:

       G            G7
In the pines,in the pines,
          C         G
where the sun never shines,
        G               D         G
And you shiver when the cold wind blows.
G        G7
Whoo-hoo whoohoo  
C    G 
ooh  ooh
     D    G
ooh, ooh, ooh

Verse 3: 

       G            G7         C      G
Little girl, little girl, what have I done, 
     G         D        G
that makes you treat me so?
    G            G7        C            G
You caused me to weep, you caused me to moan, 
    G            D        G
you caused me to leave my home.


Chorus:

       G            G7
In the pines,in the pines,
          C         G
where the sun never shines,
        G               D         G
And you shiver when the cold wind blows.
G        G7
Whoo-hoo whoohoo  
C    G 
ooh  ooh
     D    G
ooh, ooh, ooh


Outro:
G   G7

C   G

G   D

G  (slowly)
Добавлено: 27.09.2015
Другие материалы по этой песне:
  • Аккорды и текст

Страница создана 27.09.2015
http://primanota.ru/traditional/in-pines-chords.htm
Привет, Гость.
Предлагаем пройти революционный курс по гитаре.
Подарок от PrimaNota.Ru, забирай!