PrimaNota.ru - самый крупный в мире бесплатный архив песенных текстов, аккордов, табулатур и нот


Traditional Serbian - Tamo Daleko - таба, видео

Регистрация Запомнить меня
Войти через:  Facebook Google Twitter Vk Yandex Mail.ru

Traditional Serbian - Tamo Daleko - таба, видео

Печатать
Просмотров: 101
Author/Artist: Srbian Tradicional 
Title: Tamo daleko
Album: Unknown
Transcribed by: BadelVlahov
Email: badelvlahov@gmail.com

There are many versions different by lyrics, but music is simmilar in every case!
I m from Bosnia and Herzegovina, please without any nazi or hate comments!

Cheers!


(Tamo daleko, daleko od mora....)
----|----------|----------------|----------------------|----------------------
----|----------|----------------|----------------------|----------------------
----|----------|---9-9-7-9-10-9-|--------9-7----7------|-9-10-9-7-------------
-7--|-7-10-9-7-|-7--------------|-7-9-10-----10---10-9-|----------10-9-7------
---7|----------|----------------|----------------------|----------------------
----|----------|----------------|----------------------|----------------------

                                                                              
(O zar je morala doć....)
-------------------|-----------------|----------------------|-----------------
-------------------|-----------------|----------------------|-----------------
---------9-7-----9-|--------9-7------|-7-7-7-7-------7-9-10-|-9-10-9-7--------
-7-9-10-------10---|-7-9-10-----10-9-|----------10-9--------|----------10-9-7-
-------------------|-----------------|----------------------|-----------------
-------------------|-----------------|----------------------|-----------------

Lyrics: 

Am            C     G     C
Tamo daleko, daleko od mora,
Am            Dm    E          Am
Tamo je selo moje, tamo je Srbija 2X

Tamo daleko, gdje cvata limun zut,
Tamo je Srpskoj vojsci jedini bio put 2X

Am                                     E
O zar je morala doć, ta tužna nesretna noć
                      E7             Am
Kada si dragane moj, otišo u krvav boj

Tamo daleko, gdje cveta beli krim,
Tamo su zivote dali zajedno otac i sin 2X

Tamo gdje tiha putuje Morava,
Tamo mi ikona osta, i moja krsna slava 2X

O zar je morala doć, ta tužna nesretna noć
Kada si dragane moj, otišo u krvav boj

Tamo gde kivo pozdravlja vekov rad,
Tamo mi spalise crkvu, u kojoj vencah se mlad 2X

Bez otadzbine na Krfu ziveh ja,
Ali sam ponosnop klico zivela Srbija 2X

Listen to song: http://www.1389.org.rs/pesme/Tamo%20Daleko.mp3
Youtube: https://www.youtube.com/watch?v=NHEFFK9EPgY

Greatings from Konjic! 

                                                                              

Добавлено: 01.05.2016
Другие материалы по этой песне:
  • Аккорды и текст

Страница создана 01.05.2016
http://primanota.ru/traditional-serbian/tamo-daleko-chords.htm
Привет, Гость.
Предлагаем пройти революционный курс по гитаре.
Подарок от PrimaNota.Ru, забирай!