PrimaNota.ru - самый крупный в мире бесплатный архив песенных текстов, аккордов, табулатур и нот


Tradewinds - Little Susans Dreamin - бас-таба, видео

Регистрация Запомнить меня
Войти через:  Facebook Google Twitter Vk Yandex Mail.ru

Tradewinds - Little Susans Dreamin - бас-таба, видео

Печатать
Просмотров: 70
Tabbed by: 6METAL6BASSIST6
E-mail: petergriffinav@gmail.com

Tuning: EADG

0:07

G|--------|
D|--------|
A|10--\---|
E|--------|

G|----------------------------------------------------------------|
D|----------------------------4---5-------------------------------|
A|3-----------5-------------------------------3-------------------|
E|----------------------------------------------------------------|

0:13

G|----------------------------------------------------------------|
D|----------------------------4---5-------------------------------| x2
A|3-----------5-------------------------------3-------------------|
E|----------------------------------------------------------------|

G|--------------------------------|
D|3---2---0-----------------------|
A|------------3-------------------|
E|--------------------------------|

0:26

G|----------------------------------------------------------------|
D|----------------------------4---5-------------------------------| x2
A|3-----------5-------------------------------3-------------------|
E|----------------------------------------------------------------|

G|--------------------------------|
D|3---2---0-----------------------|
A|------------3-------------------|
E|--------------------------------|

0:38

G|----------------------------------------------------------------|.
D|5-----------5---5---------------5-----------5---5-------4-------|.
A|----------------------------------------------------------------|.
E|----------------------------------------------------------------|.
                                                                   . x2
G|----------------------------------------------------------------|.
D|3-----------3---3-----------------------------------------------|.
A|--------------------------------3-----------3---3---------------|.
E|----------------------------------------------------------------|.

G|----------------------------------------------------------------|
D|3-------------------------------3-------------------------------|
A|------------3-------3---3-------------------3-------3---3-------|
E|----------------------------------------------------------------|

G|--------------------------------|
D|--------------------------------|
A|5-----------5---5-------5-------|
E|--------------------------------|

G|----------------------------------------------------------------|
D|5---5---5---5---5---5---5---5---5---5---5---5---5---5---5---5---| x2
A|----------------------------------------------------------------|
E|----------------------------------------------------------------|

1:15

G|----------------------------------------------------------------|
D|----------------------------4---5-------------------------------| x2
A|3-----------5-------------------------------3-------------------|
E|----------------------------------------------------------------|

G|--------------------------------|
D|3---2---0-----------------------|
A|------------3-------------------|
E|--------------------------------|

1:28

G|----------------------------------------------------------------|
D|----------------------------4---5-------------------------------| x2
A|3-----------5-------------------------------3-------------------|
E|----------------------------------------------------------------|

G|--------------------------------|
D|3---2---0-----------------------|
A|------------3-------------------|
E|--------------------------------|

1:41

G|----------------------------------------------------------------|.
D|5-----------5---5---------------5-----------5---5-------4-------|.
A|----------------------------------------------------------------|.
E|----------------------------------------------------------------|.
                                                                   . x2
G|----------------------------------------------------------------|.
D|3-----------3---3-----------------------------------------------|.
A|--------------------------------3-----------3---3---------------|.
E|----------------------------------------------------------------|.

G|----------------------------------------------------------------|
D|3-------------------------------3-------------------------------|
A|------------3-------3---3-------------------3-------3---3-------|
E|----------------------------------------------------------------|

G|--------------------------------|
D|--------------------------------|
A|5-----------5---5-------5-------|
E|--------------------------------|

G|----------------------------------------------------------------|
D|5---5---5---5---5---5---5---5---5---5---5---5---5---5---5---5---|
A|----------------------------------------------------------------|
E|----------------------------------------------------------------|

G|----------------------------------------------------------------|
D|5---5---5---5---5---5---5---5---5-------------------------------|
A|--------------------------------------------------------10--\---|
E|----------------------------------------------------------------|

2:19

G|----------------------------------------------------------------|
D|----------------------------4---5-------------------------------| x3
A|3-----------5-------------------------------3-------------------|
E|----------------------------------------------------------------|

G|--------------------------------------------------------------------------------|
D|------------------------------------------------5-------------------------------| x2
A|3-----------5-------------------5---------------------------3-------------------|
E|--------------------------------------------------------------------------------|

G|----------------------------------------------------------------|
D|----------------------------4---5-------------------------------| x3 to fadeout.
A|3-----------5-------------------------------3-------------------|
E|----------------------------------------------------------------|
Добавлено: 19.06.2016
Вам также может быть интересно:
Другие материалы по этой песне:
  • Аккорды и текст

Страница создана 19.06.2016
http://primanota.ru/tradewinds/little-susans-dreamin-chords.htm
Привет, Гость.
Предлагаем пройти революционный курс по гитаре.
Подарок от PrimaNota.Ru, забирай!