PrimaNota.ru - самый крупный в мире бесплатный архив песенных текстов, аккордов, табулатур и нот


Tracy Chapman - Remember The Tinman - аккорды и текст, таба, видео

Регистрация Запомнить меня
Войти через:  Facebook Google Twitter Vk Yandex Mail.ru

Tracy Chapman - Remember The Tinman - аккорды и текст, таба, видео

Печатать
Просмотров: 146
Авторы музыки: Tracy Chapman
Авторы текста: Tracy Chapman
Remember The Tinman
Tracy Chapman
Remember the Tinman - by Tracy Chapman
From the Album "New Beginning"
Transcribed by Jeff Chester (jefferyryanc@hotmail.com)

 

This tab is all my own work. This is a rather simple song that sounds
nice and impressive.  There are only a few parts so I will tab them and
let you put it together for yourself. 

 

Note: CAPO 1st Fret

 

Intro and Verses
     Em                    Em              
e-----------0---------------------0---------------
B-----------0---------------------0---------------
G-----------0---------------------0---------------
D--------2--2-------------------2-2---------------
A------0h2--2--2-3-2-0--------0h2-2-2-3-2-0-------
E-----------0----------3-2--------0---------3-2---


  Asus2      G      C
e-------------------0-----
B-------------------1-----
G--h2---------------0-----
D-0h2--------0------2-----
A-------------------3-----
E-------------------x-----

 

        C              Em     Add this as needed
e----------------------0-----------0--------------
B----------------------0-----------0--------------
G----------------------0-----------0--------------
D----------------------0h2---------2--------------
A---3-2-0---0-2-0------0h2---------2h3------------
E---------3-------3----0-----------0--------------

 

 

Chorus
         Am         Bm         Em
e--------0----------2----------0------------------
B--------1----------3----------0------------------
G--------2----------4----------0------------------
D--------2----------4----------2------------------
A--------0----------2----------2------------------
E--------x----------x----------0------------------

 

You can add these tidbits to the chorus for some flare if you like, the
first is played by the bass but its not hard to slip in. The second Tracy
plays on her guitar. 
        Em                            
e-----------------------------------0-------------
B-----------------------------------0-------------
G--------------0--------------------0-------------
D------------2---4--2---------------2-------------
A----------2------------------------2h3-----------
E--------0--------------------------0-------------

 

Send me an email and let me know if any one actually uses this tab.
Jeff Chester, jefferyryanc@hotmail.com,  www.geocities.com/jefferyryanc
     
Добавлено: 01.08.2013
Другие материалы по этой песне:
  • Аккорды и текст

Страница создана 22.04.2012
http://primanota.ru/tracy-chapman/remember-the-tinman-chords.htm
Привет, Гость.
Предлагаем пройти революционный курс по гитаре.
Подарок от PrimaNota.Ru, забирай!