PrimaNota.ru - самый крупный в мире бесплатный архив песенных текстов, аккордов, табулатур и нот


Tracer - Too Much - таба, видео

Регистрация Запомнить меня
Войти через:  Facebook Google Twitter Vk Yandex Mail.ru

Tracer - Too Much - таба, видео

Печатать
Просмотров: 78
Tuning: C# G# C# F# A# D#

Intro:

D#|--------------------------------|--------------------------------|
A#|--------------------------------|--------------------------------|
F#|--------------------------------|--------------------------------|
C#|-7-7----------------------------|-7-7----------------------------|
G#|-5-5-5-5-5-5-5-5-5-5-5-5-5-5-5-5|-5-5-5-5-5-5-5-5-5-5-5-5-5-5-5-5|
C#|--------------------------------|--------------------------------| X3

D#|--------------------------------|--------------------------------|
A#|--------------------------------|--------------------------------|
F#|--------------------------------|--------------------------------|
C#|-7-7----------------------------|-7-7-----7-7---7----------------|
G#|-5-5-5-5-5-5-5-5-5-5-5-5-5-5-5-5|-5-5-5-5-5-5-5-5---------5------|
C#|--------------------------------|-------------------0-3-5---5-3-5|

Verse:

D#|--------------------------------|--------------------------------|
A#|--------------------------------|--------------------------------|
F#|--------------------------------|--------------------------------|
C#|--------------------------------|--------------------------------|
G#|-0-0-----5-----5---------3------|-0-0-----5-----5---------3------|
C#|-0-0-3-5---3-5-----0-3-5---5-3-5|-0-0-3-5---3-5-----0-3-5---3-5-3| X12

Pre-Chorus 1:

D#|--------------------------------|--------------------------------|
A#|--------------------------------|--------------------------------|
F#|--------------------------------|--------------------------------|
C#|--------------------------------|--------------------------------|
G#|-3-3-3-3-3-3-3-3-3-3-3-3-3-3-3-3|-0-0-----5-----5---------3------|
C#|-3-3-3-3-3-3-3-3-3-3-3-3-3-3-3-3|-0-0-3-5---3-5-----0-3-5---3-5-3|

Pre Chorus 2:

D#|--------------------------------|--------------------------------|
A#|--------------------------------|--------------------------------|
F#|--------------------------------|--------------------------------|
C#|--------------------------------|--------------------------------|
G#|-3-3-3-3-3-3-3-3-3-3-3-3-3-3-3-3|-5-5-5-5-5-5-5-5---1010--1010-12|
C#|-3-3-3-3-3-3-3-3-3-3-3-3-3-3-3-3|-5-5-5-5-5-5-5-5---1010--1010-12|

Chorus:

D#|--------------------------------|--------------------------------|
A#|--------------------------------|--------------------------------|
F#|--------------------------------|--------------------------------|
C#|--------------------------------|------------------------101010--|
G#|12--12121210121012--121212101210|12--121212101210-8--8-8--8-8-8-8|
C#|12--12121210121012--121212101210|12--121212101210-8--8-8--------8| X4

Bridge:

Same as intro.

Solo:

Improvise around these notes:
D#|-------------------------10-13--|
A#|-------------------10-13--------|
F#|-------------10-12--------------|
C#|-------10-12--------------------|
G#|-10-12--------------------------|
C#|--------------------------------|

Rhythm is same as the verse.

Structure:

Intro
Verse
Pre-Chorus 1
Verse
Pre-Chorus 1
Pre-Chorus 2
Chorus
Verse
Pre-Chorus 1
Pre-Chorus 2
Chorus
Bridge
Solo
Pre-Chorus 1
Pre-Chorus 2
Chorus
Verse

Tracer Website: http://www.tracer-band.com/ 
Добавлено: 01.12.2013
Другие материалы по этой песне:
  • Аккорды и текст

Страница создана 15.09.2013
http://primanota.ru/tracer/too-much-chords.htm
Привет, Гость.
Предлагаем пройти революционный курс по гитаре.
Подарок от PrimaNota.Ru, забирай!