PrimaNota.ru - самый крупный в мире бесплатный архив песенных текстов, аккордов, табулатур и нот


Toyguitar - Roller Coasters - бас-таба, видео

Регистрация Запомнить меня
Войти через:  Facebook Google Twitter Vk Yandex Mail.ru

Toyguitar - Roller Coasters - бас-таба, видео

Печатать
Просмотров: 23
-------------------------------------------------------------------------------
                             ToyGuitar - Roller Coasters
-------------------------------------------------------------------------------

Tuning: Standard

Intro

G|----------------------------------------------------------------|
D|9-9-9-9-9-9-9-9-13-13-13-13-13-13-13-13-16-16-16-16-16-16-16-16-|
A|----------------------------------------------------------------|
E|----------------------------------------------------------------|

Verse

G|------------------------------------------------------------------------------------------------|
D|------------------------------------------------------------------------------------------------|
A|7-7-7-7-7-7-7-7-7-7-7-7-7-7-7-7-----------------------------------------------------------------|
E|--------------------------------4-4-4-4-4-4-4-4-4-4-4-4-4-4-4-4-5-5-5-5-5-5-5-5-5-5-5-5-5-5-5-5-|

G|-------------------------------------------------------------------------------------------------|
D|--------------------------------2-2-2-2-2-2-2-2-2-2-2-2-2-2-2-2-/6-6-6-6-6-6-6-6-6-6-6-6-6-6-6-6-|
A|-------------------------------------------------------------------------------------------------|
E|0-0-0-0-0-0-0-0-0-0-0-0-0-0-0-0------------------------------------------------------------------|

G|----------------------------------------------------------------|
D|7-7-7-7-7-7-7-7-7-7-7-7-7-7-7-7-9-9-9-9-9-9-9-9-9-9-9-9-9-9-9-9-|
A|----------------------------------------------------------------|
E|----------------------------------------------------------------|

Chorus

G|----------------------------------------------------------------------------------------|
D|11-11--9-9-9----------------7/11-11--9-9-9----------------7/11-11--9-9-9----------------|
A|--------------7-7-7--7-7-7------------------7-7-7--7-7-7------------------7-7-7--7-7-7--|
E|----------------------------------------------------------------------------------------|

G|----------------------|
D|7/11-11--9-9-9--------|
A|----------------7-7~--|
E|----------------------|

Verse

G|------------------------------------------------------------------------------------------------|
D|------------------------------------------------------------------------------------------------|
A|7-7-7-7-7-7-7-7-7-7-7-7-7-7-7-7-----------------------------------------------------------------|
E|--------------------------------4-4-4-4-4-4-4-4-4-4-4-4-4-4-4-4-5-5-5-5-5-5-5-5-5-5-5-5-5-5-5-5-|

G|-------------------------------------------------------------------------------------------------|
D|--------------------------------2-2-2-2-2-2-2-2-2-2-2-2-2-2-2-2-/6-6-6-6-6-6-6-6-6-6-6-6-6-6-6-6-|
A|-------------------------------------------------------------------------------------------------|
E|0-0-0-0-0-0-0-0-0-0-0-0-0-0-0-0------------------------------------------------------------------|

G|----------------------------------------------------------------|
D|7-7-7-7-7-7-7-7-7-7-7-7-7-7-7-7-9-9-9-9-9-9-9-9-9-9-9-9-9-9-9-9-|
A|----------------------------------------------------------------|
E|----------------------------------------------------------------|

Bridge

G|----------------------------------------------------------------|
D|7-7-7-7-7-7-7-7-7-7-7-7-7-7-7-7---------------------------------|
A|--------------------------------7-7-7-7-7-7-7-7-7-7-7-7-7-7-7-7-|
E|----------------------------------------------------------------|

G|-------------------------------------------------------------------------|
D|7-7-7-7-7-7-7-7-7-7-7-7-7-7-7-7-9-9-9-9-9-9-9-9h11-9-9-9-9-9-9-9-9-------|
A|-------------------------------------------------------------------7\----|
E|-------------------------------------------------------------------------|

G|-----------------------------------------------------------------------------|
D|-----------------------------------------------------------------------------|
A|---------------------4-4-4--2-2-2----------------4-4-4--2-2-2----------------|
E|---------0-0--0-0-0----------------0-0-0--0-0-0----------------0-0-0--0-0-0--|

G|----------------------------|
D|----------------------------|
A|4-4-4--2-2-2--2/7-7--7-7-7--|
E|----------------------------|

Chorus

G|------------------------------------------------------------------------------------------|
D|7/11-11--9-9-9----------------7/11-11--9-9-9----------------7/11-11--9-9-9----------------|
A|----------------7-7-7--7-7-7------------------7-7-7--7-7-7------------------7-7-7--7-7-7--|
E|------------------------------------------------------------------------------------------|

G|-----------------------------|
D|7/11-11--9-9-9---------------|
A|----------------7-7~~--------|
E|-----------------------------|

| /  slide up
| \  slide down
| h  hammer-on
===============================================================================
Добавлено: 18.03.2016
Вам также может быть интересно:
Другие материалы по этой песне:
  • Аккорды и текст

Страница создана 18.03.2016
http://primanota.ru/toyguitar/roller-coasters-chords.htm
Привет, Гость.
Предлагаем пройти революционный курс по гитаре.
Подарок от PrimaNota.Ru, забирай!