PrimaNota.ru - самый крупный в мире бесплатный архив песенных текстов, аккордов, табулатур и нот


Toyguitar - Is It True - таба, видео

Регистрация Запомнить меня
Войти через:  Facebook Google Twitter Vk Yandex Mail.ru

Toyguitar - Is It True - таба, видео

Печатать
Просмотров: 90
Intro

Lead 2x
e---------------------5------5----5--------9-----9----------|
b---10---10------5-----5---/7----7-7---7/10----10-10---10---|
G-/9----9--9---\6----6--------------------------------------|
D-----------------------------------------------------------|
A-----------------------------------------------------------|
E-----------------------------------------------------------|

Rhythm (play on 2nd time through the lead)
e-----------------------------------------------------------|
b-----------------------------------------------------------|
G-----------------------------------------------------------|
D------------------------------------------66-----666-------|
A------------------------------------------66-----666-------|
E------------------------------------------44-----444-------|
                                           pp

Verse 4x
Lead
e---------------------5------5----5--------9-----9----------|
b---10---10------5-----5---/7----7-7---7/10----10-10---10---|
G-/9----9--9---\6----6--------------------------------------|
D-----------------------------------------------------------|
A-----------------------------------------------------------|
E-----------------------------------------------------------|

Rhythm
e-------------------------------------|
b-------------------------------------|
G-------------------------------------|
D-7777777777777777-4444444444444666---|
A-7777777777777777-4444444444444666---|
E-5555555555555555-2222222222222444---|

Chorus
Lead
e-------------------------------------------------------------------------7-7strum---|
b---10--------------------10---------------------------12-14-12-10-9------9-9strum---|
G-9----9----9h11-9-----------9----9h11-9---------10-14---------------9-9--9-9strum---|
D--------11--------11-9-7------11--------11-9/12-------------------------------------|
A------------------------------------------------------------------------------------|
E------------------------------------------------------------------------------------|

Rhythm
e----------------------------------------------------------------------------------|
b----------------------------------------------------------------------------------|
G----------66666666----------66666666-77777777-1111111111111111-9999999999999999---|
D-77777777-66666666-77777777-66666666-77777777-1111111111111111-9999999999999999---|
A-77777777-44444444-77777777-44444444-55555555--9-9-9-9-9-9-9-9-7777777777777777---|
E-55555555----------55555555-------------------------------------------------------|

Verse (Lead Only 3x then Rhythm below on 4th time)

Rhythm
e------------|
b------------|
G-99999999---|
D-99999999---|
A-77777777---|
E------------|

Chorus 1x

Bridge 4x
e--------------------------|
b-10101010-9999--7779999---|
G--9-9-9-9-9999--9999999---|
D--------------------------|
A--------------------------|
E--------------------------|

Verse 4x with alternate rhythm

e----------------------------------------------------------------------|
b----------------------------------------------------------------------|
G----------------------------------------------------------------------|
D----------------------------------------------------------------------|
A----------------------------------------------------------------------| 2x
E-5555555555555555-2222222222222444-5555555555555555-222222200000000---|

Chorus 1x

Bridge 8x Rhythm comes in on 5th time

e-55555555-222-0000---|
b-55555555-222-0000---|
G-66666666-222-1111---|
D-77777777-444-2222---|
A-77777777-444-2222---| 4x
E-55555555-222-0000---|

End on A
Добавлено: 06.06.2015
Вам также может быть интересно:
Другие материалы по этой песне:
  • Аккорды и текст

Страница создана 06.06.2015
http://primanota.ru/toyguitar/is-it-true-chords.htm
Привет, Гость.
Предлагаем пройти революционный курс по гитаре.
Подарок от PrimaNota.Ru, забирай!