PrimaNota.ru - самый крупный в мире бесплатный архив песенных текстов, аккордов, табулатур и нот


Toy - Bright White Shimmering Sun - таба, видео

Регистрация Запомнить меня
Войти через:  Facebook Google Twitter Vk Yandex Mail.ru

Toy - Bright White Shimmering Sun - таба, видео

Печатать
Просмотров: 88
Уроки эстрадного вокала в Санкт-Петербурге
Artist: Toy
Song: Bright White Shimmering Sun
Tabbed by: L. A. Rai
http://toy-band.com/

Intro:

E-----12-10-9-10-------10-9-7-9-14------|
B----------------7---7----------14------|
G-8-9------------7-7------------14------|
D----------------7----------------------|
A---------------------------------------|
E---------------------------------------|

E-----12-10-9-10------14----14----12----|
B---------------7-------15--------12----|
G-8--9----------7-/12-----12------12----|
D---------------7-----------------------|
A---------------------------------------|
E---------------------------------------|

Main riff:

E--17-15-14-17-15-14-15----15-14-12-15-14-12-14----|
B--------------------------------------------------|
G--------------------------------------------------|
D--------------------------------------------------|
A--------------------------------------------------|
E--------------------------------------------------|


E-12-10-9-12-10-9-10-----10-14-10-9----------------|
B---------------------12---------------------------|
G--------------------------------------------------|
D--------------------------------------------------|
A--------------------------------------------------|
E--------------------------------------------------|

Chorus:

E-5--3--2--0--3--2--0------------------------------|
B-5--3--3--2--3--3--2------------------------------|
G-6--4--4--2--4--4--2------------------------------|
D-7--5--4--2--5--4--2------------------------------|
A-7--5--2--0--5--2--0------------------------------|
E-5--3--------3------------------------------------|

Verses:

E-----------------------------------------|
B-7-7-8-7-8-7--5-5-8-5-8-5----------------|
G-7-7-7-7-7-7--5-5-5-5-5-5----------------|
D-7-7-7-7-7-7--5-5-5-5-5-5----------------|
A-----------------------------------------|
E-----------------------------------------|

Break:

E-----------------------------------------------------|
B---0---0---0---0---0---0----0---0---0---0---0---0----|
G--7---7---7---7---7---7----5---5---5---5---5---5-----|
D-9---9---9---9---9---9----7---7---7---7---7---7------|
A-----------------------------------------------------|
E-----------------------------------------------------|

Main riff/Outro:

E-17-15-14-17-15-14-15------15------15-15-14-12-15-14-12-14------14------14--|
B---------------------12--12--12--12-----------------------12--12--12--12----|
G-----------------------12------12---------------------------11------11------|
D----------------------------------------------------------------------------|
A----------------------------------------------------------------------------|
E----------------------------------------------------------------------------|


E-12-10-9-12-10-9-10----10---10----10-14-10-9---------|
B--------------------7-7--7-7----12-------------------|
G---------------------7----7--------------------------|
D-----------------------------------------------------|
A-----------------------------------------------------|
E-----------------------------------------------------|


Feel free to post any corrections etc.

and if you get a chance, check out my own music:

http://soundcloud.com/laura-rai
Добавлено: 29.10.2013
Другие материалы по этой песне:
  • Аккорды и текст

Страница создана 29.10.2013
http://primanota.ru/toy/bright-white-shimmering-sun-chords.htm
Привет, Гость.
Предлагаем пройти революционный курс по гитаре.
Подарок от PrimaNota.Ru, забирай!