PrimaNota.ru - самый крупный в мире бесплатный архив песенных текстов, аккордов, табулатур и нот


Toy Dolls - Shell Be Back With Keith Someday - текст песни, таба, видео

Регистрация Запомнить меня
Войти через:  Facebook Google Twitter Vk Yandex Mail.ru

Toy Dolls - Shell Be Back With Keith Someday - текст песни, таба, видео

Печатать
Просмотров: 97
-------------------------------------------------------------------------------
               SHE'LL BE BACK WITH KEITH SOMEDAY - Toy Dolls
-------------------------------------------------------------------------------
Tabbed by: starbreaker  
Email: shurik666@inbox.ru

Tuning: standart

This tab is for the live version of the song which is on the "On stage in Stuttgart" album.

Intro:

e|---------------------------------------------------|
B|---------------------------------------------------|
G|--10---5----10-9--7--2----10-9--7--5---------------|
D|--x----x----x--x--x--x----x--x--x--x--3--5--10-10--|
A|--8----3----8--7--5--0----8--7--5--3--x--x--x--x---|
E|--------------------------------------1--3--8--8---|

e|--------------------------------------------------------|
B|--------------------------------------------------------|
G|--10---5----10-9--7--2---10-9--7--5--12--10-9--7--5-----|
D|--x----x----x--x--x--x---x--x--x--x--x---x--x--x--x--5--|
A|--8----3----8--7--5--0---8--7--5--3--10--8--7--5--3--x--|
E|-----------------------------------------------------3--|


Verse 1:

   P.M.------------------------------------------------------------|   
e|-------------------------------------------------------------------|
B|-------------------------------------------------------------------|
G|-------------------------------------------------------------------|
D|------------------3-3-3-3-3-3-3-3----------------------------------|
A|--3-3-3-3-3-3-3-3-1-1-1-1-1-1-1-1-3-3-3-3-3-3-3-3-3-3-3-3-3-3-3-3--|
E|--1-1-1-1-1-1-1-1-----------------1-1-1-1-1-1-1-1-1-1-1-1-1-1-1-1--|

e|-------------------------------------------------------------------|
B|-------------------------------------------------------------------|
G|--7-7-7-7-7-7-7-7-3-3-3-3-3-3-3-3-5-5-5-5-5-5-5-5-5-5-5-5-5-5-5-5--|
D|--7-7-7-7-7-7-7-7-3-3-3-3-3-3-3-3-5-5-5-5-5-5-5-5-5-5-5-5-5-5-5-5--|
A|--5-5-5-5-5-5-5-5-1-1-1-1-1-1-1-1-3-3-3-3-3-3-3-3-3-3-3-3-3-3-3-3--|
E|-------------------------------------------------------------------|

   P.M.--------------------------------------------|   
e|---------------------------------------------------------------|
B|---------------------------------------------------------------|
G|---------------------------------------------------------------|
D|------------------3-3-3-3-3-3-3-3------------------3--2--0-----|
A|--3-3-3-3-3-3-3-3-1-1-1-1-1-1-1-1-3-3-3-3-3-3-3-3-----------3--|
E|--1-1-1-1-1-1-1-1-----------------1-1-1-1-1-1-1-1--------------|

e|-------------------------------------------------------------------|
B|-------------------------------------------------------------------|
G|--7-7-7-7-7-7-7-7-3-3-3-3-3-3-3-3-5-5-5-5-5-5-5-5-5-5-5-5-5-5-5-5--|
D|--7-7-7-7-7-7-7-7-3-3-3-3-3-3-3-3-5-5-5-5-5-5-5-5-5-5-5-5-5-5-5-5--|
A|--5-5-5-5-5-5-5-5-1-1-1-1-1-1-1-1-3-3-3-3-3-3-3-3-3-3-3-3-3-3-3-3--|
E|-------------------------------------------------------------------|

Bridge before Chorus:

   P.M.----------------------------|
e|-----------------------------------------------------------------|
B|-----------------------------------------------------------------|
G|-----------------------------------------------------------------|
D|--3-3-2-2-----2-2-3-3-2-2-----2-2-3---2-------2---3---2-------2--|
A|----------3-3-------------3-3-------------3---------------3------|
E|-----------------------------------------------------------------|

e|-------------------------------------------------------------------|
B|-------------------------------------------------------------------|
G|----------------------------------5-5-5-5-5-5-5-5-5-5-5-5-5-5-5-5--|
D|----------------------------------5-5-5-5-5-5-5-5-5-5-5-5-5-5-5-5--|
A|--3---1---0-------3---1---0-------3-3-3-3-3-3-3-3-3-3-3-3-3-3-3-3--|
E|--------------3---------------3------------------------------------|

Chorus 

e|-------------------------------------------------------------------|
B|--6-6-6-6-6-6-6-6-6-6-6-6-6-6-6-6----------------------------------|
G|--5-5-5-5-5-5-5-5-5-5-5-5-5-5-5-5-7-7-7-7-7-7-7-7------------------|
D|--3-3-3-3-3-3-3-3-3-3-3-3-3-3-3-3-7-7-7-7-7-7-7-7-7-7-7-7-7-7-7-7--|
A|----------------------------------5-5-5-5-5-5-5-5-7-7-7-7-7-7-7-7--|
E|--------------------------------------------------5-5-5-5-5-5-5-5--|

e|-------------------------------------------------------------------|
B|-------------------------------------------------------------------|
G|----------------------------------5-5-5-5-5-5-5-5-5-5-5-5-5-5-5-5--|
D|--8-8-8-8-8-8-8-8-3-3-3-3-3-3-3-3-5-5-5-5-5-5-5-5-5-5-5-5-5-5-5-5--|
A|--8-8-8-8-8-8-8-8-3-3-3-3-3-3-3-3-3-3-3-3-3-3-3-3-3-3-3-3-3-3-3-3--|
E|--6-6-6-6-6-6-6-6-1-1-1-1-1-1-1-1----------------------------------|

e|-------------------------------------------------------------------|
B|--6-6-6-6-6-6-6-6-6-6-6-6-6-6-6-6----------------------------------|
G|--5-5-5-5-5-5-5-5-5-5-5-5-5-5-5-5-7-7-7-7-7-7-7-7------------------|
D|--3-3-3-3-3-3-3-3-3-3-3-3-3-3-3-3-7-7-7-7-7-7-7-7-7-7-7-7-7-7-7-7--|
A|----------------------------------5-5-5-5-5-5-5-5-7-7-7-7-7-7-7-7--|
E|--------------------------------------------------5-5-5-5-5-5-5-5--|


e|----------------------------------------------------------|
B|----------------------------------------------------------|
G|------------------5---------------10---5---10-9--7--5-----|
D|--8-8-8-8-8-8-8-8-5---------------x----x---x--x--x--x--5--|
A|--8-8-8-8-8-8-8-8-3---------------8----3---8--7--5--3--x--|
E|--6-6-6-6-6-6-6-6--------------------------------------3--|

Verse 2:

   P.M.--------------------------------------------|   
e|---------------------------------------------------------------|
B|---------------------------------------------------------------|
G|---------------------------------------------------------------|
D|------------------3-3-3-3-3-3-3-3------------------3--2--0-----|
A|--3-3-3-3-3-3-3-3-1-1-1-1-1-1-1-1-3-3-3-3-3-3-3-3-----------3--|
E|--1-1-1-1-1-1-1-1-----------------1-1-1-1-1-1-1-1--------------|

e|-------------------------------------------------------------------|
B|-------------------------------------------------------------------|
G|--7-7-7-7-7-7-7-7-3-3-3-3-3-3-3-3-5-5-5-5-5-5-5-5-5-5-5-5-5-5-5-5--|
D|--7-7-7-7-7-7-7-7-3-3-3-3-3-3-3-3-5-5-5-5-5-5-5-5-5-5-5-5-5-5-5-5--|
A|--5-5-5-5-5-5-5-5-1-1-1-1-1-1-1-1-3-3-3-3-3-3-3-3-3-3-3-3-3-3-3-3--|
E|-------------------------------------------------------------------|

   P.M.--------------------------------------------|   
e|---------------------------------------------------------------|
B|---------------------------------------------------------------|
G|---------------------------------------------------------------|
D|------------------3-3-3-3-3-3-3-3------------------3--2--0-----|
A|--3-3-3-3-3-3-3-3-1-1-1-1-1-1-1-1-3-3-3-3-3-3-3-3-----------3--|
E|--1-1-1-1-1-1-1-1-----------------1-1-1-1-1-1-1-1--------------|

e|-----------------------------------|
B|-----------------------------------|
G|--7-7-7-7-7-7-7-7-3-3-3-3-3-3-3-3--|
D|--7-7-7-7-7-7-7-7-3-3-3-3-3-3-3-3--|
A|--5-5-5-5-5-5-5-5-1-1-1-1-1-1-1-1--|
E|-----------------------------------|

e|-----------------------------------|
B|-----------------------------------|
G|-----------------------------------|
D|-----------------------------------|
A|--3---1---0-------3---1---0--------|
E|--------------3---------------3----|

Chorus:

e|-------------------------------------------------------------------|
B|--6-6-6-6-6-6-6-6-6-6-6-6-6-6-6-6----------------------------------|
G|--5-5-5-5-5-5-5-5-5-5-5-5-5-5-5-5-7-7-7-7-7-7-7-7------------------|
D|--3-3-3-3-3-3-3-3-3-3-3-3-3-3-3-3-7-7-7-7-7-7-7-7-7-7-7-7-7-7-7-7--|
A|----------------------------------5-5-5-5-5-5-5-5-7-7-7-7-7-7-7-7--|
E|--------------------------------------------------5-5-5-5-5-5-5-5--|


e|-----------------------------------|
B|-----------------------------------|
G|------------------5-5-5-5-5-5-5-5--|
D|--8-8-8-8-8-8-8-8-5-5-5-5-5-5-5-5--|
A|--8-8-8-8-8-8-8-8-3-3-3-3-3-3-3-3--|
E|--6-6-6-6-6-6-6-6------------------|

            
e|-------------------------------------|
B|------6------------------------------|
G|--7---5------------------------------|
D|--7---3------------------------------|
A|--5-----------7-----7-----------7----|
E|----------5-5-5-5-5-5-5-5-5-5-5-5-5--|
            x x   x x   x x x x x   x 

e|-----------------------------|
B|------6----------------------|
G|--7---5---5-5-5-5-5-5-5-5-5--|
D|--7---3---5-5-5-5-5-5-5-5-5--|
A|--5-------3-3-3-3-3-3-3-3-3--|
E|-----------------------------|

Solo:

Do a pick slide 

   P.M.--------|
e|----------------------------------------------------|
B|----------------------------------10-10-8-8\6--6\3--|
G|--------------------7b9r7-5-7b~---------------------|
D|--7-7-7-8-8-8-10~-----------------------------------|
A|----------------------------------------------------|
E|----------------------------------------------------|


e|-----------6-6--4-4--3-3--1----------------------|
B|-----3-3-----------------------------------------|
G|--3--------------------------3b~-----------------|
D|-------------------------------------------------|
A|--1--------------------------------3-3-5-7-5--3--|
E|-------------------------------------------------|

   P.M.--------|             (slow bend)
e|-----------------------------------------------|
B|-----------------------------------------------|
G|--2-2-2-3-3-3-5~--7b9r7-5--------------5-7b9~--|
D|---------------------------7b9-----------------|
A|-----------------------------------------------|
E|-----------------------------------------------|
        
        T       T       T       T       T       T       T          
e|----------------------------------------------------------------|
B|--6---13p6h10-13p6h10-13p6h10-13p6h10-13p6h10-13p6h10-13p6h8~\--|
G|----------------------------------------------------------------|
D|----------------------------------------------------------------|
A|----------------------------------------------------------------|
E|----------------------------------------------------------------|


e|------------------------13--|
B|--------------5-6-----------|
G|----------5-7------/10~-----|
D|------2-3-------------------|
A|--3-5-----------------------|
E|----------------------------|

Then:

e|---------------------------------------------|
B|---------------------------------------------|
G|--11---6----11-10-8--3----11-10-8--6--13-11--|
D|--x----x----x--x--x--x----x--x--x--x--x--x---|
A|--9----4----9--8--6--1----9--8--6--4--11-9---|
E|---------------------------------------------|


Verse 3: 

Only bass plays

Then:

  P.M.------------------------------------------------------------|
e|------------------------------------------------------------------|
B|------------------------------------------------------------------|
G|------------------------------------------------------------------|
D|-----------------4-4-4-4-4-4-4-4----------------------------------|
A|-4-4-4-4-4-4-4-4-2-2-2-2-2-2-2-2-4-4-4-4-4-4-4-4-4-4-4-4-4-4-4-4--|
E|-2-2-2-2-2-2-2-2-----------------2-2-2-2-2-2-2-2-2-2-2-2-2-2-2-2--|


e|----------------------------------------------------|
B|----------------------------------------------------|
G|-8-8-8-8-8-8-8-8-4-4-4-4-4-4-4-4-6-6-6-6-6-6-6-6-6--|
D|-8-8-8-8-8-8-8-8-4-4-4-4-4-4-4-4-6-6-6-6-6-6-6-6-6--|
A|-6-6-6-6-6-6-6-6-2-2-2-2-2-2-2-2-4-4-4-4-4-4-4-4-4--|
E|----------------------------------------------------|

Chorus:

e|-------------------------------------------------------------------|
B|--7-7-7-7-7-7-7-7-7-7-7-7-7-7-7-7----------------------------------|
G|--6-6-6-6-6-6-6-6-6-6-6-6-6-6-6-6-8-8-8-8-8-8-8-8------------------|
D|--4-4-4-4-4-4-4-4-4-4-4-4-4-4-4-4-8-8-8-8-8-8-8-8-8-8-8-8-8-8-8-8--|
A|----------------------------------6-6-6-6-6-6-6-6-8-8-8-8-8-8-8-8--|
E|--------------------------------------------------6-6-6-6-6-6-6-6--|

e|-------------------------------------------------------------------|
B|-------------------------------------------------------------------|
G|----------------------------------6-6-6-6-6-6-6-6-6-6-6-6-6-6-6-6--|
D|--9-9-9-9-9-9-9-9-4-4-4-4-4-4-4-4-6-6-6-6-6-6-6-6-6-6-6-6-6-6-6-6--|
A|--9-9-9-9-9-9-9-9-4-4-4-4-4-4-4-4-4-4-4-4-4-4-4-4-4-4-4-4-4-4-4-4--|
E|--7-7-7-7-7-7-7-7-2-2-2-2-2-2-2-2----------------------------------|



e|-------------------------------------------------------------------|
B|--7-7-7-7-7-7-7-7-7-7-7-7-7-7-7-7----------------------------------|
G|--6-6-6-6-6-6-6-6-6-6-6-6-6-6-6-6-8-8-8-8-8-8-8-8------------------|
D|--4-4-4-4-4-4-4-4-4-4-4-4-4-4-4-4-8-8-8-8-8-8-8-8-8-8-8-8-8-8-8-8--|
A|----------------------------------6-6-6-6-6-6-6-6-8-8-8-8-8-8-8-8--|
E|--------------------------------------------------6-6-6-6-6-6-6-6--|

e|-----------------------------------|
B|-----------------------------------|
G|------------------6-6-6-6-6-6-6-6--|
D|--9-9-9-9-9-9-9-9-6-6-6-6-6-6-6-6--|
A|--9-9-9-9-9-9-9-9-4-4-4-4-4-4-4-4--|
E|--7-7-7-7-7-7-7-7------------------|


e|-------------------------------------------------------------------|
B|--7-7-7-7-7-7-7-7-7-7-7-7-7-7-7-7----------------------------------|
G|--6-6-6-6-6-6-6-6-6-6-6-6-6-6-6-6-8-8-8-8-8-8-8-8------------------|
D|--4-4-4-4-4-4-4-4-4-4-4-4-4-4-4-4-8-8-8-8-8-8-8-8-8-8-8-8-8-8-8-8--|
A|----------------------------------6-6-6-6-6-6-6-6-8-8-8-8-8-8-8-8--|
E|--------------------------------------------------6-6-6-6-6-6-6-6--|

e|-------------------------------------------------------------------|
B|-------------------------------------------------------------------|
G|----------------------------------6-6-6-6-6-6-6-6-6-6-6-6-6-6-6-6--|
D|--9-9-9-9-9-9-9-9-4-4-4-4-4-4-4-4-6-6-6-6-6-6-6-6-6-6-6-6-6-6-6-6--|
A|--9-9-9-9-9-9-9-9-4-4-4-4-4-4-4-4-4-4-4-4-4-4-4-4-4-4-4-4-4-4-4-4--|
E|--7-7-7-7-7-7-7-7-2-2-2-2-2-2-2-2----------------------------------|



e|-------------------------------------------------------------------|
B|--7-7-7-7-7-7-7-7-7-7-7-7-7-7-7-7----------------------------------|
G|--6-6-6-6-6-6-6-6-6-6-6-6-6-6-6-6-8-8-8-8-8-8-8-8------------------|
D|--4-4-4-4-4-4-4-4-4-4-4-4-4-4-4-4-8-8-8-8-8-8-8-8-8-8-8-8-8-8-8-8--|
A|----------------------------------6-6-6-6-6-6-6-6-8-8-8-8-8-8-8-8--|
E|--------------------------------------------------6-6-6-6-6-6-6-6--|

e|-----------------------------------|
B|-----------------------------------|
G|------------------6-6-6-6-6-6-6-6--|
D|--9-9-9-9-9-9-9-9-6-6-6-6-6-6-6-6--|
A|--9-9-9-9-9-9-9-9-4-4-4-4-4-4-4-4--|
E|--7-7-7-7-7-7-7-7------------------|

Ending:

   P.M.-----------------------------------------------------------|
e|----------------------------------------------------------------------|
B|-----------------------------------------------------------------7----|
G|-6-6-6-6-6-6-6-6-6-6-6-6-6-6-6-6-9-9-9-9-9-9-9-9-9-9-9-9-9-9-9-9-6----|
D|-4-4-4-4-4-4-4-4-4-4-4-4-4-4-4-4-7-7-7-7-7-7-7-7-7-7-7-7-7-7-7-7-4----|
A|----------------------------------------------------------------------|
E|----------------------------------------------------------------------|

e|-------------------|
B|--7-7-7-------7-7--|
G|--6-6-6-6-6-6-6-6--|
D|--4-4-4-6-6-6-4-4--|
A|--------4-4-4------|
E|-------------------|


| /  slide up
| \  slide down
| h  hammer-on
| p  pull-off
| ~  vibrato
| +  harmonic
| x  Mute note
===============================================================================
Добавлено: 04.07.2012
Другие материалы по этой песне:
  • Аккорды и текст

Страница создана 01.07.2012
http://primanota.ru/toy-dolls/shell-be-back-with-keith-someday-chords.htm
Привет, Гость.
Предлагаем пройти революционный курс по гитаре.
Подарок от PrimaNota.Ru, забирай!