PrimaNota.ru - самый крупный в мире бесплатный архив песенных текстов, аккордов, табулатур и нот


Toy Dolls - Back In 79 - текст песни, таба, видео

Регистрация Запомнить меня
Войти через:  Facebook Google Twitter Vk Yandex Mail.ru

Toy Dolls - Back In 79 - текст песни, таба, видео

Печатать
Просмотров: 122
BACK' IN 79
from: bigula1

INTRO
1st PART
E------------------------------------------|
B------------------------------------------|
G--9-9-----9X-9X-9-------------------------|
D--9-9-9-9-9X-9X-9-9-9-7-7-7-7--9-9-9-9-9--|
A--7-7-9-9---------9-9-7-7-7-7--9-9-9-9-9--|
E----------------------5-5-5-5--7-7-7-7-7--| 2X

2nd PART
E---------------------------|
B------------------------4--|
G--1X-1X-1X-1X-1X-1X-1X--4--|
D--2X-2X-2X-2X-2X-2X-2X--4--|
A--2X-2X-2X-2X-2X-2X-2X--2--|
E--0X-0X-0X-0X-0X-0X-0X-----| 4X


VERSE
1st PART
E------------------------------------------------------------------------------|
B---------------------4X-4X-4X-4X-4X-4X--2X-2X-2X-2X-2X-2X--4X-4X-4X-4X-4X-4X--|
G--1X-1X-1X-1X-1X-1X--4X-4X-4X-4X-4X-4X--2X-2X-2X-2X-2X-2X--4X-4X-4X-4X-4X-4X--|
D--2X-2X-2X-2X-2X-2X--4X-4X-4X-4X-4X-4X--2X-2X-2X-2X-2X-2X--4X-4X-4X-4X-4X-4X--|
A--2X-2X-2X-2X-2X-2X--2X-2X-2X-2X-2X-2X--0X-0X-0X-0X-0X-0X--2X-2X-2X-2X-2X-2X--|
E--0X-0X-0X-0X-0X-0X-----------------------------------------------------------|

2nd PART
E------------------------------------------------------------------------|
B---------------------4X-4X-4X-4X-4X-4X--2X-2X-2X-2X-2X-2X--4-4-4-4-4-4--|
G--1X-1X-1X-1X-1X-1X--4X-4X-4X-4X-4X-4X--2X-2X-2X-2X-2X-2X--4-4-4-4-4-4--|
D--2X-2X-2X-2X-2X-2X--4X-4X-4X-4X-4X-4X--2X-2X-2X-2X-2X-2X--4-4-4-4-4-4--|
A--2X-2X-2X-2X-2X-2X--2X-2X-2X-2X-2X-2X--0X-0X-0X-0X-0X-0X--2-2-2-2-2-2--|
E--0X-0X-0X-0X-0X-0X-----------------------------------------------------|

3th PART
E------------------------------------------------------|
B---------------4-4-4-4-4-4--2-2-2-2-2-2--4-4-4-4-4-4--|
G--1-1-1-1-1-1--4-4-4-4-4-4--2-2-2-2-2-2--4-4-4-4-4-4--|
D--2-2-2-2-2-2--4-4-4-4-4-4--2-2-2-2-2-2--4-4-4-4-4-4--|
A--2-2-2-2-2-2--2-2-2-2-2-2--0-0-0-0-0-0--2-2-2-2-2-2--|
E--0-0-0-0-0-0-----------------------------------------| 2x


CHORUS
E-----------------------------------------------|
B---------------------2-2-2-2-2-2--4-4-4-4-4-4--|
G--1X-1X-1X-1X-1X-1X--2-2-2-2-2-2--4-4-4-4-4-4--|
D--2X-2X-2X-2X-2X-2X--2-2-2-2-2-2--4-4-4-4-4-4--|
A--2X-2X-2X-2X-2X-2X--0-0-0-0-0-0--2-2-2-2-2-2--|
E--0X-0X-0X-0X-0X-0X----------------------------| 2x

2nd PART - INTRO
E---------------------------|
B------------------------4--|
G--1X-1X-1X-1X-1X-1X-1X--4--|
D--2X-2X-2X-2X-2X-2X-2X--4--|
A--2X-2X-2X-2X-2X-2X-2X--2--|
E--0X-0X-0X-0X-0X-0X-0X-----| 4X


* VERSE

* CHORUS


SOLO (GUITAR 1)        9ª
E--------------------|-----------17b18-------------------------------|
B--9--17t-p9h12-(8X)-|-12v---10v-------------------------------------|
G--------------------|----------------14-14v-s-14b16-14-13-14v-------|
D--------------------|-----------------------------------------------|
A--------------------|-----------------------------------------------|
E--------------------|-----------------------------------------14s1--|

E------------------------------15s16-12--------|
B------------------2--------------------12-----|
G------------------2s6-6vs9-9v-------------14--|
D----2-------------2---------------------------|
A--------7-------2-0---------------------------|
E--0---0---0x-0x-------------------------------|

E--------------------------------------------------------------------------------------------------|
B------12h14p12-----------12h14p12-----------12h14p12-----------12h14p12-----------12h14p12--------|
G13h14----------h14-13h14----------h14-13h14----------h14-13h14----------h14-13h14----------14s9-9v|
D--------------------------------------------------------------------------------------------------|
A--------------------------------------------------------------------------------------------------|
E--------------------------------------------------------------------------------------------------|

E-------9-12s17s12-9---------------------------------0---------9h11h12--|
B----10--------------10--------------------------------9h10h12----------|
G--9--------------------9s6----------------------6h8--------------------|
D---------------------------7s9------------6h7h9------------------------|
A-------------------------------7v---6h7h9------------------------------|
E-----------------------------------------------------------------------|

E---------------------------------------------------|
B--11s14-14s17--17s21-21----21t21t21t21t21t21ts0----|
G---------------------------------------------------|
D---------------------------------------------------|
A---------------------------------------------------|
E---------------------------------------------------|

GUITAR 2
		E----------------------------------|
		B----------------------------------|
		G--9-9-----9-X-9-X-9---------------|
		D--9-9-9-9-9-X-9-X-9-9-9-----------|
		A--7-7-9-9-----------9-9-(all 3x)--|
		E----------------------------------|


* VERSE 3th PART

* CHORUS


FINAL
E-----------------------------------------------|
B---------------------3-3-3-3-3-3--5-5-5-5-5-5--|
G--2X-2X-2X-2X-2X-2X--3-3-3-3-3-3--5-5-5-5-5-5--|
D--3X-3X-3X-3X-3X-3X--3-3-3-3-3-3--5-5-5-5-5-5--|
A--3X-3X-3X-3X-3X-3X--1-1-1-1-1-1--3-3-3-3-3-3--|
E--1X-1X-1X-1X-1X-1X----------------------------| 2x

E---------------------------------------|
B-------5-5-------5-5---------5---5-----|
G--2-2--5-5--2-2--5-5--2-2-2--5---5--2--|
D--3-3--5-5--3-3--5-5--3-3-3--5---5--3--|
A--3-3--3-3--3-3--3-3--3-3-3--3---3--3--|
E--1-1-------1-1-------1-1-1---------1--|
Добавлено: 13.03.2012
Другие материалы по этой песне:

Страница создана 07.03.2012
http://primanota.ru/toy-dolls/back-in-79-chords.htm
Привет, Гость.
Предлагаем пройти революционный курс по гитаре.
Подарок от PrimaNota.Ru, забирай!