PrimaNota.ru - самый крупный в мире бесплатный архив песенных текстов, аккордов, табулатур и нот


Toxik - Voices - таба, видео

Регистрация Запомнить меня
Войти через:  Facebook Google Twitter Vk Yandex Mail.ru

Toxik - Voices - таба, видео

Печатать
Просмотров: 92
originally tabbed by metalthrashingm

Gtr I (E A D G B E) - 'Josh I'
Gtr II (E A D G B E) - 'Josh II'
Gtr III (E A D G B E) - 'Lead fill'
Gtr IV (E A D G B E) - 'Solo'


 0:00 - Intro
  Q=135
  N.C.
 2/4   4/4
  Gtr I
                    \0.5/      \0.5/      \0.5/
|-----|-----------------------------------------|
|-----|-----------------------------------------|
|-----|-----------------------------------------|
|-----|------------/8S====10-(10)S===12-(12)S===|
|-----|-----------------------------------------|
|-----|--/8----(8)------------------------------|
|
| Gtr II
|-----|-----------------------------------------|
|-----|-----------------------------------------|
|-----|-----------------------------------------|
|-----|-/10-------------------------------------|
|-----|-----------------------------------------|
|-----|---8-------------------------------------|


                    ~~~~~~~~~~~~
|--------------------------------|
|--------------------------------|
|--------------------------------|
|--14---14p12p10-----------------|
|-----------------[15]b16--(15)--|
|--------------------------------|
|
|--------------------------------|
|--------------------------------|
|--------------------------------|
|-(10)---------------------------|
|--------------------------------|
|--(8)---------------------------|


                                              C#sus2
         \0.5/
                                       ~~
|-------------------------|-----------------|-4-4---4-4---|-4-4---4-4----||
|-------------------------|------/13--11----|-4-4---4-4---|-4-4---4-4----||
|-/8----(8)S===12-10-(10)p|==8--------------|-6-6---6-6---|-6-6---6-6----||
|-------------------------|-----------------|-6-6---6-6---|-6-6---6-6/---||
|-------------------------|-----------------|-4-4---4-4---|-4-4---4-4/---||
|-------------------------|-----------------|-------------|--------------||
|
|-------------------------|-----------------|-4-4---4-4---|-4-4---4-4----||
|-------------------------|-----------------|-4-4---4-4---|-4-4---4-4----||
|--8----------------------|-(8)-------------|-6-6---6-6---|-6-6---6-6----||
|-------------------------|-----------------|-6-6---6-6---|-6-6---6-6/---||
|--6----------------------|-(6)-------------|-4-4---4-4---|-4-4---4-4/---||
|-------------------------|-----------------|-------------|--------------||


   Verse - 0:14
    Q=205
    N.C.
    Gtrs I, II
    PM--|    PM--------|  ~~
||---------------------------|
||o--------------------------|
||---------------------------|
||---------------------------|
||o-0-0-0-12-0-0-0-0-0-0-12--|
||---------------------------|


  PM--|                          PM--|    PM--------|  ~~
|------------------------------|----------------------------|
|------------------------------|----------------------------|
|------------------------------|----------------------------|
|-----------------------12-13--|----------------------------|
|-0-0-0-12-0-0-12-13-15--------|-0-0-0-12-0-0-0-0-0-0-12----|
|------------------------------|----------------------------|


                                            B#5B5A#5
                ~~~~~
                      3x
|---------------------||-------------|--------------||
|--------------------o||-------------|--------------||
|---------------------||-9-----------|--------------||
|-------------[18]\---||-9---10---9--|--7---10-9-8--||
|-15--18-17----------o||------8---7--|--5---10-9-8--||
|---------------------||-------------|-------8-7-6--||


   Pre-Verse - 0:30
    $
    N.C.
    PM--|     PM----|        PM--|     PM----| ~    PM--|     PM----|
||-------------------------|----------------------|------------------------|
||o------------------------|----------------------|------------------------|
||-------------------------|----------------------|------------------------|
||--------------------10-9-|----------------------|-------------------10-9-|
||o-0-0-0-6-7-0-0-0-0------|-0-0-0-6-7-------5-6--|-0-0-0-6-7-0-0-0-0------|
||-------------------------|-----------5-6-8------|------------------------|


                                                       D.S.
                                                    B#5B5A#5
  PM--|
|----------------------------||--------------|---------------||
|---------------------------o||--------------|---------------||
|----------------------------||--------------|---------------||
|--------------------12-13---||-14---10---9--|--7---10-9-8---||
|-0-0-0-6-7-12-13-15--------o||-12----8---7--|--5---10-9-8---||
|----------------------------||--------------|-------8-7-6---||


 Verse - 0:53
  N.C.
      ~~~~~~~~~~~~~~~       ~~~       ~~~~~~~~~~~~~~~       ~~~
|------------|------------------|------------|-------------------|
|------------|------------------|------------|-------------------|
|------------|-------------[9]--|------------|-------------[9]---|
|------------|------------------|------------|-------------------|
|-0---3---0--|-(0)-1---/6-------|-0---3---0--|-(0)-1---/6--------|
|------------|------------------|------------|-------------------|


  PM----------------------|      ~~~   PM----------------------|
|-----------------|------------------|-----------------|-----------------||
|-----------------|------------------|-----------------|-----------------||
|-----------------|-------------[9]--|-----------------|-------------8---||
|-------1---------|---1--------------|-------1---------|---1-------------||
|-3-1-0---1-0-3-1-|-0---1-0-/6-------|-3-1-0---1-0-3-1-|-0---1-0-/6------||
|-----------------|------------------|-----------------|-----------------||


   Chorus - 1:03
    N.C.
    Gtrs I, II
    PM--|     PM----|        PM--|     PM----| ~
||-------------------------|----------------------|
||o------------------------|----------------------|
||-------------------------|----------------------|
||--------------------10-9-|----------------------|
||o-0-0-0-6-7-0-0-0-0------|-0-0-0-6-7-------5-6--|
||-------------------------|-----------5-6-8------|
|
|   Gtr III
||-------------------------|----------------------|
||o------------------------|----------------------|
||-------------------------|----------------------|
||-------------------------|----------------------|
||o------------------------|----------------------|
||-------------------------|----------------------|


   PM------|               PM------|
|-------------------------------------------------|
|-------------------------------------------------|
|-------------------------------------------------|
|-------------------------------------10-----9----|
|--0-----0--0--6-----7-----0--0--0--0-------------|
|-------------------------------------------------|
|
|-------------------------------------------------|
|-17-17-17-17-------------16-16-16-16-------------|
|-------------14-14-14-14-------------14-14-14-14-|
|-------------------------------------------------|
|-------------------------------------------------|
|-------------------------------------------------|


  1.
   PM------|
|------------------------------------------||
|-----------------------------------------o||
|--------------------------------5--7--8---||
|--------------------------7--8------------||
|--0-----0--0--6-----7--------------------o||
|------------------------------------------||
|
|------------------------------------------||
|-17-17-17-17-------------------13-15-16--o||
|-------------14-14-14-14-14-15------------||
|------------------------------------------||
|-----------------------------------------o||
|------------------------------------------||


 2.
                                           2/4
   PM------|
|-----------------------------------------|------------------|
|-----------------------------------------|------------------|
|--------------------------------5--7--8--|--------7--8-10---|
|--------------------------7--8-----------|--8-10------------|
|--0-----0--0--6-----7--------------------|------------------|
|-----------------------------------------|------------------|
|
|-----------------------------------------|------------------|
|-17-17-17-17-------------------13-15-16--|-------15-16-18---|
|-------------14-14-14-14-14-15-----------|-15-17------------|
|-----------------------------------------|------------------|
|-----------------------------------------|------------------|
|-----------------------------------------|------------------|


   Verse - 1:13
    N.C.
   4/4
    Gtrs I, II
    PM--|     PM----|        PM--|     PM----| ~    PM--|     PM----|
||-------------------------|----------------------|-------------------------|
||o------------------------|----------------------|-------------------------|
||-------------------------|----------------------|-------------------------|
||--------------------10-9-|----------------------|-------------------10-9--|
||o-0-0-0-6-7-0-0-0-0------|-0-0-0-6-7-------5-6--|-0-0-0-6-7-0-0-0-0-------|
||-------------------------|-----------5-6-8------|-------------------------|


                                                    B#5B5A#5
  PM--|
|----------------------------||--------------|---------------||
|---------------------------o||--------------|---------------||
|----------------------------||--------------|---------------||
|--------------------12-13---||-14---10---9--|--7---10-9-8---||
|-0-0-0-6-7-12-13-15--------o||-12----8---7--|--5---10-9-8---||
|----------------------------||--------------|-------8-7-6---||


   Verse - 1:25
    Q=215
    N.C.
    PM----------------------|  ~~~~~~~~
||------------------|-------------------|
||o-----------------|-------------------|
||------------------|---------[4]--[5]--|
||------------------|-------------------|
||o-2-2-3-2-2-3-2-2-|-3-2-2-3-----------|
||------------------|-------------------|


  PM----------------------|  ~~~~~~~~
|-----------------|--------------------||
|-----------------|-------------------o||
|-----------------|--------------------||
|-----------------|--------------------||
|-2-2-3-2-2-3-2-2-|-3-2-2-3-[2]--[3]--o||
|-----------------|--------------------||


  PM----------------------|  ~~~~~~~~   PM----------------------|  ~~~~~~~~
|-----------------|-------------------|-----------------|-------------------|
|-----------------|-------------------|-----------------|-------------------|
|-----------------|---------[6]--[7]--|-----------------|---------[6]--[7]--|
|-----------------|-------------------|-----------------|-------------------|
|-4-4-5-4-4-5-4-4-|-5-4-4-5-----------|-4-4-5-4-4-5-4-4-|-5-4-4-5-----------|
|-----------------|-------------------|-----------------|-------------------|


  PM----------------------|  ~~~~~~~~   PM------------------------------|
|-----------------|-------------------|-----------------|-----------------||
|-----------------|-------------------|-----------------|-----------------||
|-----------------|---------[7]--[8]--|-----------------|-----------------||
|-----8S7---8S7---|-8S7---8-----------|-----8S7---8S7---|-8S7---8-----7-9-||
|-5-5-6S5-5-6S5-5-|-6S5-5-6-----------|-5-5-6S5-5-6S5-5-|-6S5-5-6-7-9-----||
|-----------------|-------------------|-----------------|-----------------||


 Interlude - 1:42
  N.C.
            PM|            PM
|-12-------------12-------------|------------------------------|
|----13-------------13----------|------------------------------|
|-------14-------------14-------|------------------------------|
|----------14-14----------14-13-|-(13)-14-13-14-14-12----------|
|-------------------------------|---------------------12-------|
|-------------------------------|------------------------13-12-|


            PM|            PM
|-12-------------12----------13-|-(13)-12-13-12-13-12\-24\---|
|----13-------------13----------|----------------------------|
|-------14-------------14-------|----------------------------|
|----------14-14----------14----|----------------------------|
|-------------------------------|----------------------------|
|-------------------------------|----------------------------|


            PM|            PM
|-12-------------12-------------|------------------------------|
|----13-------------13----------|------------------------------|
|-------14-------------14-------|------------------------------|
|----------14-14----------14-13-|-(13)-14-13-14-14-12----------|
|-------------------------------|---------------------12-------|
|-------------------------------|------------------------13-12-|


            PM|            PM
|----------------------------13-|-(13)-12-13-12-13-12\-24\---||
|-13-------------13-------------|----------------------------||
|----14-------------14----------|----------------------------||
|-------15-14-14-------15-14----|----------------------------||
|-------------------------------|----------------------------||
|-------------------------------|----------------------------||


 Solo I - 1:52
  N.C.
  Gtr IV
|-------------21-19-18-16-------------20-19-18-17-|
|-19-20-21-22-------------18-19-20-21-------------|
|-------------------------------------------------|
|-------------------------------------------------|
|-------------------------------------------------|
|-------------------------------------------------|
|
| Gtrs I, II
|              PM---|                  PM
|-12----------------------12----------------------|
|----13----------------------13-------------------|
|-------14----------------------14----------------|
|-------------14----14----------------14----13----|
|-------------------------------------------------|
|-------------------------------------------------|


|---------------19-18-17-16-------------18-17-16-15---|
|--17--18-19-20-------------16-17-18-19---------------|
|-----------------------------------------------------|
|-----------------------------------------------------|
|-----------------------------------------------------|
|-----------------------------------------------------|
|
|-----------------------------------------------------|
|-----------------------------------------------------|
|-----------------------------------------------------|
|-(13)----14----13----14-------14----12---------------|
|---------------------------------------12------------|
|------------------------------------------13----12---|


|-------------17-15-14-13-------------16----|---------------------------|
|-15-16-17-18-------------14-15-16-17-------|---------------------------|
|-------------------------------------------|---------------------------|
|-------------------------------------------|---------------------------|
|-------------------------------------------|---------------------------|
|-------------------------------------------|---------------------------|
|
|              PM---|                  PM
|----------------------------------------13-|-(13)-12-13-12-13-12\-24\--|
|-13----------------------13----------------|---------------------------|
|----14----------------------14-------------|---------------------------|
|-------15----14----14----------15----14----|---------------------------|
|-------------------------------------------|---------------------------|
|-------------------------------------------|---------------------------|


  Gtrs I, II
            PM|            PM
|-12-------------12-------------|------------------------------|
|----13-------------13----------|------------------------------|
|-------14-------------14-------|------------------------------|
|----------14-14----------14-13-|-(13)-14-13-14-14-12----------|
|-------------------------------|---------------------12-------|
|-------------------------------|------------------------13-12-|


                                 5/4
            PM|            PM
|-12-------------12-------------|----------------------||
|----13-------------13----------|----------------------||
|-------14-------------14-------|----------------------||
|----------14-14----------14----|----------------------||
|----------------------------10-|-(10)--12--14--15-----||
|-------------------------------|----------------------||


 Interlude - 2:02
  Q=205
  N.C.
 4/4
          \0.5/       \0.5/       \0.5/  \0.5/   \0.5/   \0.5/
|------------------|-------------------------------------------|
|-----7--(7)S===8--|-(8)S===10--(10)S===12------14-----(14)S===|
|-4----------------|-------------------------------------------|
|------------------|-------------------------------------------|
|------------------|-------------------------------------------|
|------------------|-------------------------------------------|


                        ~~~~
|---------------17--|-(17)----|
|-15---14-(14)------|---------|
|-------------------|---------|
|-------------------|---------|
|-------------------|---------|
|-------------------|---------|


                                                            Solo - 2:11
  Gtrs I, II
                                                              \1
                                                   ~
|-17h19-14----15h17-12--|-(12)-12s9---10-9--|-9h10p9------||-(9)------||
|-----------------------|-------------------|-------------||----------||
|-----------------------|-------------------|-------------||----------||
|-----------------------|-------------------|-------------||----------||
|-----------------------|-------------------|-------------||----------||
|-----------------------|-------------------|-------------||----------||
|
| Gtr IV
|-----------------------|-------------------|-------------||-19b21----||
|-----------------------|-------------------|-------------||----------||
|-----------------------|-------------------|-------------||----------||
|-----------------------|-------------------|-------------||----------||
|-----------------------|-------------------|-------------||----------||
|-----------------------|-------------------|-------------||----------||


|-------------|------------------|--------------|----------|
|-------------|------------------|--------------|----------|
|-------------|------------------|--------------|----------|
|-------------|------------------|--------------|----------|
|-------------|------------------|--------------|----------|
|-------------|------------------|--------------|----------|
|
|                                    ~~~              ~~
|-(19)--------|-(19)----(19)\----|--------------|----------|
|-------------|------------------|--------------|----------|
|-------------|------------------|-/16-------14h|=16p14----|
|-------------|------------------|--------------|----------|
|-------------|------------------|--------------|----------|
|-------------|------------------|--------------|----------|


|--------------------------|----------------------|
|--------------------------|----------------------|
|--------------------------|----------------------|
|--------------------------|----------------------|
|--------------------------|----------------------|
|--------------------------|----------------------|
|
|                                            ~~
|--------------------------|----------------------|
|-----------------[11]b12--|-(11)-----------------|
|-(14)--11h12p11-----------|----------------------|
|--------------------------|-------12-14-12-11----|
|--------------------------|----------------------|
|--------------------------|----------------------|


|----------------------------|-----------------------||
|----------------------------|-----------------------||
|----------------------------|-----------------------||
|----------------------------|-----------------------||
|----------------------------|-----------------------||
|----------------------------|-----------------------||
|
|  T     T     T     T     T
|----------------------------|-----------------------||
|-19p15h19p17h19p15h19p17h19-|-[15]b17---------------||
|----------------------------|-----------16p14h16----||
|----------------------------|-----------------------||
|----------------------------|-----------------------||
|----------------------------|-----------------------||


  Q=200
|-------------------------------------------------|
|-------------------------------------------------|
|-------------------------------------------------|
|-------------------------------------------------|
|-------------------------------------------------|
|-------------------------------------------------|
|
|-------14-16-18-16-14-------16-14----------------|
|-16-17----------------17-16-------17-16-17-16-14-|
|-------------------------------------------------|
|-------------------------------------------------|
|-------------------------------------------------|
|-------------------------------------------------|


|-------------------------------------------------|
|-------------------------------------------------|
|-------------------------------------------------|
|-------------------------------------------------|
|-------------------------------------------------|
|-------------------------------------------------|
|
|-------------------------------------------------|
|----14-------------------------------------------|
|-16----16-15-13-15-13----------------------------|
|----------------------16-14-16-14-13----13-------|
|-------------------------------------16----16-14-|
|-------------------------------------------------|


|-------------------------------------|-------------------------|
|-------------------------------------|-------------------------|
|-------------------------------------|-------------------------|
|-------------------------------------|-------------------------|
|-------------------------------------|-------------------------|
|-------------------------------------|-------------------------|
|
|                                                          ~~
|-------------------------------------|----------18-16-14-16----|
|----------------------------14-16-17-|-14-16-17----------------|
|----------13-15-16-13-15-16----------|-------------------------|
|-13-14-16----------------------------|-------------------------|
|-------------------------------------|-------------------------|
|-------------------------------------|-------------------------|


|-------------------------------------------------|
|-------------------------------------------------|
|-------------------------------------------------|
|-------------------------------------------------|
|-------------------------------------------------|
|-------------------------------------------------|
|
|-------18-19-21-19-18----------18-19-21-19-18----|
|-19-21----------------21-19-21----------------21-|
|-------------------------------------------------|
|-------------------------------------------------|
|-------------------------------------------------|
|-------------------------------------------------|


|-------------------------------------------------|
|-------------------------------------------------|
|-------------------------------------------------|
|-------------------------------------------------|
|-------------------------------------------------|
|-------------------------------------------------|
|
|-------18-19-21-19-18----------18----------------|
|-19-21----------------21-19-21----21-19-21-19-17-|
|-------------------------------------------------|
|-------------------------------------------------|
|-------------------------------------------------|
|-------------------------------------------------|


|------------------------------------|---------------------|
|------------------------------------|---------------------|
|------------------------------------|---------------------|
|------------------------------------|---------------------|
|------------------------------------|---------------------|
|------------------------------------|---------------------|
|
|  ~~                                                 ~~
|------------------------------------|---------------------|
|-21---------------------------------|---------------------|
|------20-21-20-18-------------------|-18b20---18-16-18----|
|------------------20-21-18-20-16-18-|---------------------|
|------------------------------------|---------------------|
|------------------------------------|---------------------|


                                  B#5B5 A#5
 8/4
|-------------------------------------------||
|-------------------------------------------||
|-------------------------------------------||
|-14------10-------9-------7------10--9--8--||
|-12-------8-------7-------5------10--9--8--||
|----------------------------------8--7--6--||
|
|                                        ~~
|--5-------7-------9------10------------24--||
|--8b10---10b12---12b14---13b15---20-22-----||
|-------------------------------------------||
|-------------------------------------------||
|-------------------------------------------||
|-------------------------------------------||


   Verse - 2:32
    N.C.
   4/4
    Gtrs I, II
    PM--|    PM--------|  ~~
||---------------------------|
||o--------------------------|
||---------------------------|
||---------------------------|
||o-0-0-0-12-0-0-0-0-0-0-12--|
||---------------------------|


  PM--|                          PM--|    PM--------|  ~~
|------------------------------|--------------------------|
|------------------------------|--------------------------|
|------------------------------|--------------------------|
|-----------------------12-13--|--------------------------|
|-0-0-0-12-0-0-12-13-15--------|-0-0-0-12-0-0-0-0-0-0-12--|
|------------------------------|--------------------------|


                                             B#5B5A#5
                ~~~~~
                      3x
|---------------------||--------------|--------------||
|--------------------o||--------------|--------------||
|---------------------||--------------|--------------||
|-------------[18]\---||-12---10---9--|--7---10-9-8--||
|-15--18-17----------o||-10----8---7--|--5---10-9-8--||
|---------------------||--------------|-------8-7-6--||


 Pre-Verse - 2:49
  N.C.
  PM--|     PM----|        PM--|     PM----| ~    PM--|     PM----|
|------------------------|----------------------|-------------------------|
|------------------------|----------------------|-------------------------|
|------------------------|----------------------|-------------------------|
|-------------------10-9-|----------------------|-------------------10-9--|
|-0-0-0-6-7-0-0-0-0------|-0-0-0-6-7-------5-6--|-0-0-0-6-7-0-0-0-0-------|
|------------------------|-----------5-6-8------|-------------------------|


                                                    B#5B5A#5
  PM--|
|----------------------------||--------------|---------------||
|---------------------------o||--------------|---------------||
|----------------------------||--------------|---------------||
|--------------------12-13---||-14---10---9--|--7---10-9-8---||
|-0-0-0-6-7-12-13-15--------o||-12----8---7--|--5---10-9-8---||
|----------------------------||--------------|-------8-7-6---||


 Verse - 3:00
  N.C.
      ~~~~~~~~~~~~~~~       ~~~       ~~~~~~~~~~~~~~~       ~~~
|------------|------------------|------------|-------------------|
|------------|------------------|------------|-------------------|
|------------|-------------[9]--|------------|-------------[9]---|
|------------|------------------|------------|-------------------|
|-0---3---0--|-(0)-1---/6-------|-0---3---0--|-(0)-1---/6--------|
|------------|------------------|------------|-------------------|


  PM----------------------|      ~~~   PM----------------------|
|-----------------|------------------|-----------------|-----------------||
|-----------------|------------------|-----------------|-----------------||
|-----------------|-------------[9]--|-----------------|-------------8---||
|-------1---------|---1--------------|-------1---------|---1-------------||
|-3-1-0---1-0-3-1-|-0---1-0-/6-------|-3-1-0---1-0-3-1-|-0---1-0-/6------||
|-----------------|------------------|-----------------|-----------------||


 Outro - 3:10
  Q=106
  N.C.
 4/4
  Gtr I
              \0.5/      \0.5/      \0.5/     \0.5/
                                                                 ~~~~~~~~~~~~
|-----------------------------------------|-----------------------------------|
|-----------------------------------------|-----------------------------------|
|-----------------------------------------|-----------------------------------|
|------------/8S====10-(10)S===12-(12)S===|==14------14p12p10-----------------|
|-----------------------------------------|--------------------[15]b16--(15)--|
|--/8----(8)------------------------------|-----------------------------------|
|
| Gtr II
|-----------------------------------------|-----------------------------------|
|-----------------------------------------|-----------------------------------|
|-----------------------------------------|-----------------------------------|
|-/10-------------------------------------|-(10)------------------------------|
|-----------------------------------------|-----------------------------------|
|---8-------------------------------------|--(8)------------------------------|


                                             G#5
                                                          3/2
         \0.5/
|---------------------|--------------------|-4-4---4-4---|-4-4---4-4---4-4----*|
|---------------------|--------------------|-4-4---4-4---|-4-4---4-4---4-4----*|
|-/8----(8)h===12-10--|--8---x--[15]b16r===|=6-6---6-6---|-6-6---6-6---6-6----*|
|---------------------|--------------------|-6-6---6-6---|-6-6---6-6---6-6----*|
|---------------------|--------------------|-4-4---4-4---|-4-4---4-4---4-4----*|
|---------------------|--------------------|-------------|--------------------*|
|
|---------------------|--------------------|-4-4---4-4---|-4-4---4-4---4-4----*|
|---------------------|--------------------|-4-4---4-4---|-4-4---4-4---4-4----*|
|--8------------------|-(8)----------------|-6-6---6-6---|-6-6---6-6---6-6----*|
|---------------------|--------------------|-6-6---6-6---|-6-6---6-6---6-6----*|
|--6------------------|-(6)----------------|-4-4---4-4---|-4-4---4-4---4-4----*|
|---------------------|--------------------|-------------|--------------------*|

Tablature Legend
----------------
 h   - hammer-on
 p   - pull-off
 b   - bend
 pb  - pre-bend
 r   - bend release (if no number after the r, then release immediately)
 /  - slide into or out of (from/to "nowhere")
 s   - legato slide
 S   - shift slide
  - natural harmonic
[n]  - artificial harmonic
n(n) - tapped harmonic
 ~   - vibrato
 tr  - trill
 T   - tap
 TP  - trem. picking
 PM  - palm muting
n/  - tremolo bar dip; n = amount to dip
 n  - tremolo bar down
 n/  - tremolo bar up
/n  - tremolo bar inverted dip
 =   - hold bend; also acts as connecting device for hammers/pulls
 <>  - volume swell (louder/softer)
 x   - on rhythm slash represents muted slash
 o   - on rhythm slash represents single note slash

Misc Legend
-----------
 |  - bar
||  - double bar
||o - repeat start
o|| - repeat end
*|  - double bar (ending)
 :  - bar (freetime)
 $  - Segno
 &  - Coda
Tempo markers -  = BPM(8/16=s8/s16),
where s8 = swing 8ths, s16 = swing 16ths
Добавлено: 10.05.2012
Вам также может быть интересно:
Другие материалы по этой песне:
  • Аккорды и текст

Страница создана 10.05.2012
http://primanota.ru/toxik/voices-chords.htm
Привет, Гость.
Предлагаем пройти революционный курс по гитаре.
Подарок от PrimaNota.Ru, забирай!