PrimaNota.ru - самый крупный в мире бесплатный архив песенных текстов, аккордов, табулатур и нот


Toxic Holocaust - Never Stop The Massacre - таба, бас-таба, видео

Регистрация Запомнить меня
Войти через:  Facebook Google Twitter Vk Yandex Mail.ru

Toxic Holocaust - Never Stop The Massacre - таба, бас-таба, видео

Печатать
Просмотров: 119
-------------------------------------------------------------------------------
                             NEVER STOP THE MASSACRE - Toxic Holocaust
-------------------------------------------------------------------------------
Tabbed by: Warbringer
Email: elderscrolls167@hotmail.com  Please email suggestions and advice to improve this tab
Words and Music by Toxic Holocaust

Tuning: Standard E tuning

Intro Riff/Main Riff play 8 times
e|---------------------------------------------------------------------------|
B|---------------------------------------------------------------------------|
G|---------------------------------------------------------------------------|
D|---------------------------------------------------------------------------|
A|-5-5--5-3-6--5-5--5-8/9-8--5-5--5-3-6--3-3-3--3-3-3------------------------|
-|-3-3--3-1-4--3-3--3-6/7-6--3-3--3-1-4--1-1-1--1-1-1------------------------|

Chorus riff play 4 times         play this the 4th time                      
B|---------------------------------------------------------------------------|
G|---------------------------------------------------------------------------|
D|-7-7--7--8-8-8--------------------------------7-7--7--8-8-8------5---3-----|
A|-5-5--5--6-6-6--8-8--8--7-7-7-----------------5-5--5--6-6-6------3---1-----|
E|----------------6-6--6--5-5-5----------------------------------------------|

Play main riff 6 times
play chorus riff 4 times
Transition into the next song (Time To Die)
e|---------------------------------------------------------------------------|
B|---------------------------------------------------------------------------|
G|---------------------------------------------------------------------------|
D|-----6---5---3-------------------------------------------------------------|
A|-5---4---3---1---5---------------------------------------------------------|
E|-3---------------3---------------------------------------------------------|


| /  slide up
| \  slide down
| h  hammer-on
| p  pull-off
| ~  vibrato
| +  harmonic
| x  Mute note
===============================================================================
Добавлено: 15.04.2012
Другие материалы по этой песне:
  • Аккорды и текст

Страница создана 15.04.2012
http://primanota.ru/toxic-holocaust/never-stop-the-massacre-chords.htm
Привет, Гость.
Предлагаем пройти революционный курс по гитаре.
Подарок от PrimaNota.Ru, забирай!