PrimaNota.ru - самый крупный в мире бесплатный архив песенных текстов, аккордов, табулатур и нот


Toxic Holocaust - Created To Kill - таба, видео

Регистрация Запомнить меня
Войти через:  Facebook Google Twitter Vk Yandex Mail.ru

Toxic Holocaust - Created To Kill - таба, видео

Печатать
Просмотров: 157
-------------------------------------------------------------------
                             Created To Kill - Toxic Holocaust
-------------------------------------------------------------------
Tabbed by:ShredHead396
Email: metalheadedwarrior@hotmail.com




Band: Toxic Holocaust
Song Name: Created To Kill
Tuning: Eb
Album: Evil Never Dies
Difficulty: Novice



Main Riff
E||---------------------------------------------|-----------||
B||---------------------------------------------|-----------||
G||---------------------------------------------|-----------||
D||------8-7-8----------------------------------|---2-------||
A||------6-5-6----------------------------------|---2-------||
E||---------------00000000----------------------|---0-------||


Riff 2
E||---------------------|----------|----------|-------------||
B||---------------------|----------|----------|-------------||
G||---------------------|---7777---|---8888---|-------------||
D------8-7-8------------|----------|----------|-------------||
A||-----6-5-6-555555----|----------|----------|-------------||
E||---------------------|----------|----------|-------------||


Riff 3
E||--------------------|------------------------------------||
B||--------------------|------------------------------------||
G||--------------------|------------------------------------||
D||--11-10-------------|--9--9-9—7-7------------------------||
A||--9--8---88888------|--7--7-7-5-5------------------------||
E||--------------------|------------------------------------||



Riff 4 
E||---------------------------------------------------------||
B||---------------------------------------------------------||
G||---------------------------------------------------------||
D||-12-12-12--9-11-9----------------------------------------||
A||-10-10-10--7-9--7----------------------------------------||
E||---------------------------------------------------------||

Solo Backing
E||---------------------------------------------------------||
B||---------------------------------------------------------||
G||---------------------------------------------------------||
D||-2-------------------------------------------------------||
A||-2-------------------------------------------------------||
E||-0-------------------------------------------------------||


Solo
E||----------22~~~~~~~~-------------------------------------||
B||---------------------------------------------------------||
G||-17fb------------------------7-10-7-9-7-10-7-------------||
D||---------------------------------------------------------||
A||---------------------------------------------------------||
E||---------------------------------------------------------||


Riff 5
E||----------------------------14-13131313-etc---|-------------------||
B||----------------------------------------------|-------------------||
G||------------12-11--10101010-------------------|-12-10-9-7---------||
D||-12-11------10-9------------------------------|-------------------||
A||-10-9--9999-----------------------------------|-------------------||
E||----------------------------------------------|-------------------||

Riff 6
E||------------------------------------|---------------||
B||------------------------------------|---------------||
G||------------------------------------|--7h8p7h8-etc--||
D||---8-7-8----------------------------|---------------||
A||---6-5-6---5555---------------------|---------------||
E||------------------------------------|---------------||

Riff 7
E||---22-22-22-22-22-22-22-22-22-22-etc----------------||
B||----------------------------------------------------||
G||----------------------------------------------------||
D||----------------------------------------------------||
A||----------------------------------------------------||
E||----------------------------------------------------||

Ending chord
E||----------------------------------------------------||
B||----------------------------------------------------||
G||----------------------------------------------------||
D||--2-------------------------------------------------||
A||--2-------------------------------------------------||
E||--0-------------------------------------------------||





Ending Riff
E||----------------------------------------------------||
B||----------------------------------------------------||
G||----------------------------------------------------||
D||---8-7-8--------------------------------------------||
A||---6-5-6--5555-etc----------------------------------||
E||----------------------------------------------------||





Main Riff x 4
Riff 2 x 4
Riff 3 x 2
Riff 2 x 4
Riff 3 x  1 ½ ( Riff 4 over the end of riff 3 )
Solo Backing x 1
Solo x 1
Riff 2 x 1
Riff 5 x 2
Riff 6 x 1
Ending Riff x 12 ( Riff 7 over the ending part of Ending Riff )
Ending Chord x 1


There it is, 100% correct, ask me if you want to use my tab, I don't tolerate theft


| /  slide up
| \  slide down
| h  hammer-on
| p  pull-off
| ~  vibrato
| +  harmonic
| x  Mute note
=========================================================
Добавлено: 12.06.2012
Другие материалы по этой песне:
  • Аккорды и текст

Страница создана 12.06.2012
http://primanota.ru/toxic-holocaust/created-to-kill-chords.htm
Привет, Гость.
Предлагаем пройти революционный курс по гитаре.
Подарок от PrimaNota.Ru, забирай!