PrimaNota.ru - самый крупный в мире бесплатный архив песенных текстов, аккордов, табулатур и нот


Towrs - Belly Of The Deepest Love - таба, видео

Регистрация Запомнить меня
Войти через:  Facebook Google Twitter Vk Yandex Mail.ru

Towrs - Belly Of The Deepest Love - таба, видео

Печатать
Просмотров: 64
-----------------------------------------------------------------  
Tow'rs - Belly of the Deepest Love Intro 

-----------------------------------------------------------------   



Tabbed by: Ivar van Wooning
Email: ivarvanwooning@hotmail.com
Tuning: Standard

Intro (1x): 
e|-------------------------|-----------2-------------|  
B|-----------5-------------|-------------------------| 
G|------4----------4-----4-|------4----------4-----4-|
D|-------------------------|-------------------------| 
A|-4------4-----4-----4----|-4------4-----4-----4----|  
E|-------------------------|-------------------------|


e|-------------------------|-------------------------|
B|-----------5-------------|-----------4-------5-5---|
G|------4----------4-----4-|------4----------4-------|
D|-------------------------|-------------------------|
A|-------------------------|-------------------------| 
E|-0------0-----0-----0----|-0------0-----0----------|


Intro (3x):
e|-------------------------|-----------2-------------|  
B|-----------5-------------|-------------------------| 
G|------4----------4-----4-|------4----------4-----4-|
D|-------------------------|-------------------------| 
A|-4------4-----4-----4----|-4------4-----4-----4----|  
E|-------------------------|-------------------------|


e|-------------------------|-------------------------|
B|-----------5-------------|-----------4-----------5-|
G|------4----------4-----4-|------4----------4-------|
D|-------------------------|-------------------------|
A|-------------------------|-------------------------| 
E|-0------0-----0-----0----|-0------0-----0-----0----|
Добавлено: 24.06.2016
Другие материалы по этой песне:
  • Аккорды и текст

Страница создана 24.06.2016
http://primanota.ru/towrs/belly-of-deepest-love-chords.htm
Привет, Гость.
Предлагаем пройти революционный курс по гитаре.
Подарок от PrimaNota.Ru, забирай!