PrimaNota.ru - самый крупный в мире бесплатный архив песенных текстов, аккордов, табулатур и нот


Tower Of Power - A Little Knowledge Is A Dangerous Thing - бас-таба, видео

Регистрация Запомнить меня
Войти через:  Facebook Google Twitter Vk Yandex Mail.ru

Tower Of Power - A Little Knowledge Is A Dangerous Thing - бас-таба, видео

Печатать
Просмотров: 55
-------------------------------------------------------------------------------
         A Little Knowledge (Is A Dangerous Thing) - Tower Of Power
-------------------------------------------------------------------------------
Tabbed by: Amy
E-mail: 

Used this based off sheet music. Should be pretty accurate. 

Tuning: Standard

Intro:
G|---------------------------------------------------------------------------|
D|---------------------------------------------------------------------------|
A|-----7-7-5-5----------------5-5-5------------------------------------------|
E|-0-0---------7-7---44-4-5-5-------7----------------------------------------|

G|---------------------------------------------------------------------------|
D|---------------------------------------------------------------------------|
A|-----7-7-5-5-2-2-----------------------------------------------------------|
E|-0-0-------------44-4-55-66-77---------------------------------------------|

G|---------------------------------------------------------------------------|
D|---------------------------------------------------------------------------|
A|-----7-7-5-5---------------------------------------------------------------|
E|-0-0---------7-7---44-4-5-5/16---------------------------------------------|

G|---------------------------------------------------------------------------|
D|---------------------------------------------------------------------------|
A|-----7-7-5-5----------------5-5-5------------------------------------------|
E|-0-0---------7-7---44-4-5-5-------7----------------------------------------|

Verse:
G|---------------------------------------------------------------------------|
D|---------------------------------------------------------------------------|
A|-----7-7-5-5----------------5-5-5------------------------------------------|
E|-0-0---------7-7---44-4-5-5-------7----------------------------------------| x3

G|---------------------------------------------------------------------------|
D|---------------------------------------------------------------------------|
A|-----7-7-5-5-2-2-----------------------------------------------------------|
E|-0-0-------------00-0-2-2-3-3-44-4-----------------------------------------|

Bridge:
G|---------------------------------------------------------------------------|
D|--------------7-7--------------7-7-----------------------------------------|
A|---------------------------------------------------------------------------|
E|-5-5-5-5-55-5-----5-5-5-5-55-5---------------------------------------------| x2

G|---------------------------------------------------------------------------|
D|--------------5-5--------------5-5-----------------------------------------|
A|---------------------------------------------------------------------------|
E|-3-3-3-3-33-3-----3-3-3-3-33-3---------------------------------------------|

G|---------------------------------------------------------------------------|
D|--------------3-3----------------------------------------------------------|
A|---------------------------------------------------------------------------|
E|-1-1-1-1-11-1--------------------7-7---------------------------------------|

Chorus:
G|---------------------------------------------------------------------------|
D|---------------------------------------------------------------------------|
A|-----7-7-5-5----------------5-5-5------------------------------------------|
E|-0-0---------7-7---44-4-5-5-------7----------------------------------------| 

G|---------------------------------------------------------------------------|
D|---------------------------------------------------------------------------|
A|-----7-7-5-5-2-2-----------------------------------------------------------|
E|-0-0-------------44-4-55-66-77---------------------------------------------|

G|---------------------------------------------------------------------------|
D|---------------------------------------------------------------------------|
A|-----7-7-5-5----------------5-5-5------------------------------------------|
E|-0-0---------7-7---44-4-5-5-------7----------------------------------------| 

G|---------------------------------------------------------------------------|
D|---------------------------------------------------------------------------|
A|-----7-7-5-5---------------------------------------------------------------|
E|-0-0---------7-7---44-4-5-5/16---------------------------------------------|

Verse 2:
G|---------------------------------------------------------------------------|
D|---------------------------------------------------------------------------|
A|-----7-7-5-5----------------5-5-5------------------------------------------|
E|-0-0---------7-7---44-4-5-5-------7----------------------------------------|  x3

G|---------------------------------------------------------------------------|
D|---------------------------------------------------------------------------|
A|-----7-7-5-5-2-2-----------------------------------------------------------|
E|-0-0-------------00-0-2-2-3-3-44-44-----------------------------------------|

Bridge:
G|---------------------------------------------------------------------------|
D|--------------7-7--------------7-7-----------------------------------------|
A|---------------------------------------------------------------------------|
E|-5-5-5-5-55-5-----5-5-5-5-55-5---------------------------------------------| x2

G|---------------------------------------------------------------------------|
D|--------------5-5--------------5-5-----------------------------------------|
A|---------------------------------------------------------------------------|
E|-3-3-3-3-33-3-----3-3-3-3-33-3---------------------------------------------|

G|---------------------------------------------------------------------------|
D|--------------3-3----------------------------------------------------------|
A|---------------------------------------------------------------------------|
E|-1-1-1-1-11-1--------------------7-7---------------------------------------|

Chorus: x2
G|---------------------------------------------------------------------------|
D|---------------------------------------------------------------------------|
A|-----7-7-5-5----------------5-5-5------------------------------------------|
E|-0-0---------7-7---44-4-5-5-------7----------------------------------------| 

G|---------------------------------------------------------------------------|
D|---------------------------------------------------------------------------|
A|-----7-7-5-5-2-2-----------------------------------------------------------|
E|-0-0-------------44-4-55-66-77---------------------------------------------|

G|---------------------------------------------------------------------------|
D|---------------------------------------------------------------------------|
A|-----7-7-5-5----------------5-5-5------------------------------------------|
E|-0-0---------7-7---44-4-5-5-------7----------------------------------------| 

G|---------------------------------------------------------------------------|
D|---------------------------------------------------------------------------|
A|-----7-7-5-5-2-2-----------------------------------------------------------|
E|-0-0-------------44-4-55-66-77---------------------------------------------|

Horn Solo:
G|---------------------------------------------------------------------------|
D|-------------------------------7-7-----------------------------------------|
A|-0-0-0-0-00-0-0-0-0-0-0-0-00-0---------------------------------------------|
E|---------------------------------------------------------------------------|

G|---------------------------------------------------------------------------|
D|-------------------------------5-5-----------------------------------------|
A|-0-0-0-0-00-0-0-0-0-0-0-0-00-0---------------------------------------------|
E|---------------------------------------------------------------------------|

G|---------------------------------------------------------------------------|
D|---------------------6-6------6--------------------------------------------|
A|---------------------------------------------------------------------------|
E|-1-1-1-1-1-1-1-14-44-----44-4---4-4----------------------------------------|

G|---------------------------------------------------------------------------|
D|-----------------5-5-------------------------------------------------------|
A|-0-0-33-55-7-5-7-----3--2--1-----------------------------------------------|
E|---------------------------------------------------------------------------|

G|---------------------------------------------------------------------------|
D|-----------------55-7-7-5-5-2-2-0-0----------------------------------------|
A|-0-0-33-55-7-5-7--------------------3--3-33--------------------------------|
E|--------------------------------------------0-11-3-------------------------|

G|----------------------------------56-7-------------------------------------|
D|----------------0--0-00-0000-0--0------------------------------------------|
A|-0--0-00-------------------------------------------------------------------|
E|---------0-11-3------------------------------------------------------------|

G|---------------------------------------------------------------------------|
D|---------------------------------------------------------------------------|
A|-7-7-77-7777-----1--1-1----------------------------------------------------|
E|---------------------------------------------------------------------------|

Bridge:
G|---------------------------------------------------------------------------|
D|--------------7-7--------------7-7-----------------------------------------|
A|---------------------------------------------------------------------------|
E|-5-5-5-5-55-5-----5-5-5-5-55-5---------------------------------------------| x2

G|---------------------------------------------------------------------------|
D|--------------5-5--------------5-5-----------------------------------------|
A|---------------------------------------------------------------------------|
E|-3-3-3-3-33-3-----3-3-3-3-33-3---------------------------------------------|

G|---------------------------------------------------------------------------|
D|--------------3-3----------------------------------------------------------|
A|---------------------------------------------------------------------------|
E|-1-1-1-1-11-1--------------------7-7---------------------------------------|

Chorus: 
G|---------------------------------------------------------------------------|
D|---------------------------------------------------------------------------|
A|-----7-7-5-5----------------5-5-5------------------------------------------|
E|-0-0---------7-7---44-4-5-5-------7----------------------------------------| 

G|---------------------------------------------------------------------------|
D|---------------------------------------------------------------------------|
A|-----7-7-5-5-2-2-----------------------------------------------------------|
E|-0-0-------------44-4-55-66-77---------------------------------------------|

G|---------------------------------------------------------------------------|
D|---------------------------------------------------------------------------|
A|-----7-7-5-5----------------5-5-5------------------------------------------|
E|-0-0---------7-7---44-4-5-5-------7----------------------------------------|  

G|---------------------------------------------------------------------------|
D|---------------------------------------------------------------------------|
A|-----7-7-5-5-2-2-----------------------------------------------------------|
E|-0-0-------------44-4-55-77-1010-------------------------------------------|

G|---------------------------------------------------------------------------|
D|---------------------------------------------------------------------------|
A|-----7-7-5-5----------------5-5-5------------------------------------------|
E|-0-0---------7-7---44-4-5-5-------7----------------------------------------| 

G|---------------------------------------------------------------------------|
D|---------------------------------------------------------------------------|
A|-----7-7-5-5-2-2-----------------------------------------------------------|
E|-0-0-------------44-4-55-66-77---------------------------------------------|

G|---------------------------------------------------------------------------|
D|---------------------------------------------------------------------------|
A|-----7-7-5-5----------------5-5-5------------------------------------------|
E|-0-0---------7-7---44-4-5-5-------7----------------------------------------| 

G|---------------------------------------------------------------------------|
D|---------------------------------------------------------------------------|
A|----------------0000-2-2-4-4-5-57-7----------------------------------------|
E|-00-2-2-3-3-4-4------------------------------------------------------------|

Keys Solo:
G|---------------------------------------------------------------------------|
D|---------------------------------------------------------------------------|
A|-----7-7-5-5-2-2--------------5--------------------------------------------|
E|-0-0-------------44-4-5-5-7-7---7------------------------------------------| 

G|---------------------------------------------------------------------------|
D|---------------------------------------------------------------------------|
A|------------------0000-2-2-3-3-5-57---7-7-5-5-2-2--------------------------|
E|-00-0-2-2-3-3-4-4-------------------0--------------------------------------|

G|---------------------------------------------------------------------------|
D|---------------------------------------------------------------------------|
A|--------------5------------------------------------------------------------|
E|-44-4-5-5-7-7---7----------------------------------------------------------| 

G|---------------------------------------------------------------------------|
D|--------------0----------------------------------0-02----------------------|
A|------0-0-2-2---2------------------00-0-22-2-4-4---------------------------|
E|-00-0-------------00-0-2-2-3-3-4-4-----------------------------------------|

Chorus: 
G|---------------------------------------------------------------------------|
D|-2-------------------------------------------------------------------------|
A|-----7-7-5-5----------------5-5-5------------------------------------------|
E|---0---------7-7---44-4-5-5-------7----------------------------------------| 

G|---------------------------------------------------------------------------|
D|---------------------------------------------------------------------------|
A|-----7-7-5-5-2-2-----------------------------------------------------------|
E|-0-0-------------44-4-55-66-77---------------------------------------------|

G|---------------------------------------------------------------------------|
D|---------------------------------------------------------------------------|
A|-----7-7-5-5----------------5-5-5------------------------------------------|
E|-0-0---------7-7---44-4-5-5-------7----------------------------------------| 

G|---------------------------------------------------------------------------|
D|---------------------------------------------------------------------------|
A|-----7-7-5-5-2-2-----------------------------------------------------------|
E|-0-0-------------44-4-55-66-77---------------------------------------------|

G|---------------------------------------------------------------------------|
D|---------------------------------------------------------------------------|
A|-----7-7-5-5----------------5-5-5------------------------------------------|
E|-0-0---------7-7---44-4-5-5-------7----------------------------------------|  

G|---------------------------------------------------------------------------|
D|---------------------------------------------------------------------------|
A|-----7-7-5-5-2-2-----------------------------------------------------------|
E|-0-0-------------44-4-55-66-77---------------------------------------------|

G|-------------------4--4-2--2-0--0-01---------------------------------------|
D|------------------2-2----2--2-2--2-----------------------------------------|
A|-----7-7-5-5-2-2-----------------------------------------------------------|
E|-0-0---------------------------------0-------------------------------------| 

G|---------------------------------------------------------------------------|
D|---------------------------------------------------------------------------|
A|-5-3-3-3-3-3-3-3-3-3-2-2-2-2-2----0257-------------------------------------|
E|---------------------------------------------------------------------------| 


| /  slide up
| \  slide down
| h  hammer-on
| p  pull-off
| ~  vibrato
| +  harmonic
| x  Mute note
===============================================================================
Добавлено: 09.06.2016
Другие материалы по этой песне:
  • Аккорды и текст

Страница создана 09.06.2016
http://primanota.ru/tower-of-power/little-knowledge-is-a-dangerous-thing-chords.htm
Привет, Гость.
Предлагаем пройти революционный курс по гитаре.
Подарок от PrimaNota.Ru, забирай!