PrimaNota.ru - самый крупный в мире бесплатный архив песенных текстов, аккордов, табулатур и нот


Tourniquet - Twilight - текст песни, таба, видео

Регистрация Запомнить меня
Войти через:  Facebook Google Twitter Vk Yandex Mail.ru

Tourniquet - Twilight - текст песни, таба, видео

Печатать
Просмотров: 148
Уроки эстрадного вокала в Санкт-Петербурге
"Twilight"
By Tourniquet

Tune 1/2 tone down


|----------------------------------------------------------------------|
|----------------------------------------------------------------------|
|----------2--------------------------------------2--------------------|
|-2--3--5-----5--3-2--0--------3-2--0----2--3--5-----5--3(5)3--2--0----|
|-----------------------3--0-3--------3------------------------------3-|
|----------------------------------------------------------------------|

|-------------------------------------------------|
|-------------------------------------------------|
|-------5--2--------------------------------------|
|------------5--2-5-------------------------------|
|-0-----------------3-----------------------------|
|-------------------------------------------------|



Добавлено: 27.07.2012
Другие материалы по этой песне:
  • Аккорды и текст

Страница создана 25.05.2012
http://primanota.ru/tourniquet/twilight-chords.htm
Привет, Гость.
Предлагаем пройти революционный курс по гитаре.
Подарок от PrimaNota.Ru, забирай!