PrimaNota.ru - самый крупный в мире бесплатный архив песенных текстов, аккордов, табулатур и нот


Tourniquet - The Tell-Tale Heart - текст песни, таба, видео

Регистрация Запомнить меня
Войти через:  Facebook Google Twitter Vk Yandex Mail.ru

Tourniquet - The Tell-Tale Heart - текст песни, таба, видео

Печатать
Просмотров: 86
		   Band/Aritist: Tourniquet
Song: The Tell-Tale Heart
Date Tabbed: May 2nd 1998
Tabbed by: Mark Hansen    email: whansen@direct.ca
Comments:  
        Greetings, and welcome to The Tell-Tale Heart.  Wow, I had a 
sudden inspiration, sat down with my guitar and tabbed this song in
about
15 minutes.  It's pretty good  too, it's only missing a few harmony
parts
and the small solo thing at the end.  Hopefully I'll add the solo at a 
later date.  Until then, enjoy!
        

Symbols used:

p = Pull off
h = Hammer on
/ = Slide up
\ = Slide Down


Intro riff (used in other places as well)...
eb|----------------------------------------------------|
Bb|----------------------------------------------------|
Gb|----------------------------------------------------|
Db|-3---2------2------0---3---2------2------0---3---2--|  Repeat as
needed
Ab|-0---0-------------2---0---0-------------2---0---0--|
Eb|------------4---------------------4-----------------|
        You need not play the bottom notes, I think they are played
by another guitar anyway, but they really make it sound full...

Chug riff
eb|------------------------------------------------------|
Bb|------------------------------------------------------|
Gb|-------------------------5--------------------------2-|
Db|-------------------------5--------------------------2-|
Ab|-1-0--1-0--1-0--1-0--1-0-3--1-0--1-0--1-0--1-0--1-0-0-|
Eb|-1-0--1-0--1-0--1-0--1-0----1-0--1-0--1-0--1-0--1-0---|


eb|-----------------------------------|
Bb|-----------------------------------|
Gb|-5------7--8----------2----------2-|  Repeat as needed
Db|-5------7--8---3-2----2---3-2----2-|
Ab|-3------5--6---1-0--3-0---1-0--3-0-|
Eb|-----------------------------------|


eb|----------------------|
Bb|----------------------|
Gb|----------------------|
Db|----------------------|
Ab|-3---2------2---0---3-|
Eb|----------------------|


eb|------------------------|
Bb|------------------------|
Gb|------------------------|
Db|------------------------|
Ab|-4---55-1---44-0---11-0-|
Eb|------------------------|

That does it...make sure to get the timing right by listening to the CD,
it's next to impossible to accurately portray the timing in these tabs.
Have fun!!

        Mark Hansen  (whansen@direct.ca)
        http://www.geocities.com/Hollywood/Hills/8172/tourniquet.html
     
Добавлено: 15.11.2013
Другие материалы по этой песне:
  • Аккорды и текст

Страница создана 20.06.2012
http://primanota.ru/tourniquet/the-tell-tale-heart-chords.htm
Привет, Гость.
Предлагаем пройти революционный курс по гитаре.
Подарок от PrimaNota.Ru, забирай!