PrimaNota.ru - самый крупный в мире бесплатный архив песенных текстов, аккордов, табулатур и нот


Tourniquet - Spectrophobic Dementia - текст песни, таба, видео

Регистрация Запомнить меня
Войти через:  Facebook Google Twitter Vk Yandex Mail.ru

Tourniquet - Spectrophobic Dementia - текст песни, таба, видео

Печатать
Просмотров: 78
Уроки эстрадного вокала в Санкт-Петербурге
		   "Spectrophobic Dementia"
by: Tourniquet
album: Pathogenic Ocular Dissonance
written by: Gary Lenaire
from: kpaju@sci.fi (Kalle Paju)
(C) 1992 Broken Songs (ASCAP)

Tune guitar down 1 1/2 steps
E=C#  G=E
A=F#  B=G#
D=B   E=C#


 A
|------------------------------------------------|
|------------------------------------------------|
|------------------------------------------------|
|3-----------------------------------------------|
|3-----------------------------------------------|
|1-----------------------------------------1--1--|
 ,  .  .  .  ,  .  .  .  ,  .  .  .  ,  .  .  .

 B
|------------------------------------------------|
|------------------------------------------------|
|------------------------------------------------|
|------------------------------------------------|
|------------------------------------------------|
|3--5--5-----5-----3--5-----3--5-----6--6--6--6--|
 ,  .  .  .  ,  .  .  .  ,  .  .  .  ,  .  .  .

 C
|------------------------------------------------|
|------------------------------------------------|
|------------------------------------------------|
|------------------------------------------------|
|------------------------------------------------|
|1--3--3-----3-----1--3-----1--3-----4--4--4--4--|
 ,  .  .  .  ,  .  .  .  ,  .  .  .  ,  .  .  .   

 D
|------------------------------------------------|
|------------------------------------------------|
|------------------------------------------------|
|------------------------------------------------|
|7-----------------------------------------------|
|5-----------------------------------------------|
 ,  .  .  .  ,  .  .  .  ,  .  .  .  ,  .  .  .   

 E
|------------------------------------------------|
|------------------------------------------------|
|------------------------------------------------|
|------------------------------------------3-----|
|2-----------3--5--------------------------1-----|
|0-----0--0--1--3--------0-----1-----3-----------|
 ,  .  .  .  ,  .  .  .  ,  .  .  .  ,  .  .  .   

 F
|------------------------------------------------|
|------------------------------------------------|
|------------------------------------------------|
|------------------------------------------------|
|2-----------------------------------5-----------|
|0-----------------------------------3-----------|
 ,  .  .  .  ,  .  .  .  ,  .  .  .  ,  .  .  .   

|------------------------------------------------|
|------------------------------------------------|
|------------------------------------------------|
|------------------------------------------------|
|4-----------------------7-----------------------|
|2-----------------------5-----------------------|
 ,  .  .  .  ,  .  .  .  ,  .  .  .  ,  .  .  .   

|------------------------------------------------|
|------------------------------------------------|
|------------------------------------------------|
|------------------------------------------------|
|4-----------------------------------------------|
|2-----------------------------------------------|
 ,  .  .  .  ,  .  .  .  ,  .  .  .  ,  .  .  .   

|------------------------------------------------|
|------------------------------------------------|
|------------------------------------------------|
|------------------------------------------------|
|5-----------------------4-----5-----4-----------|
|3-----------------------2-----3-----2-----------|
 ,  .  .  .  ,  .  .  .  ,  .  .  .  ,  .  .  .   

 G
|------------------------------------------------|
|------------------------------------------------|
|------------------------------------------------|
|2-----------------------------------------------|
|0-----------------------------------------------|
|------------------------------------------------|
 ,  .  .  .  ,  .  .  .  ,  .  .  .  ,  .  .  .   

 H
|------------------------------------------------|
|------------------------------------------------|
|------------------------------------------------|
|2-----------------------2-----------------------|
|0-----------0---0---0---0-----------0---0---0---|
|------------------------------------------------|
 ,  .  .  .  ,  .  .  .  ,  .  .  .  ,  .  .  .   

|------------------------------------------------|
|------------------------------------------------|
|------------------------------------------------|
|2-----------------------5-----------------------|
|0-----------0---0---0---3-----------3---3---3---|
|------------------------------------------------|
 ,  .  .  .  ,  .  .  .  ,  .  .  .  ,  .  .  .   

|------------------------------------------------|
|------------------------------------------------|
|------------------------------------------------|
|------------------------------------------------|
|5-----------------------5-----------------------|
|3-----------3---3---3---3-----------3---3---3---|
 ,  .  .  .  ,  .  .  .  ,  .  .  .  ,  .  .  .   

|------------------------------------------------|
|------------------------------------------------|
|------------------------------------------------|
|------------------------3-----------------------|
|5-----------------------1-----------1---1---1---|
|3-----------3---3---3---------------------------|
 ,  .  .  .  ,  .  .  .  ,  .  .  .  ,  .  .  .   

|------------------------------------------------|
|------------------------------------------------|
|------------------------------------------------|
|2-----------------------2-----------------------|
|0-----------0---0---0---0-----------0---0---0---|
|------------------------------------------------|
 ,  .  .  .  ,  .  .  .  ,  .  .  .  ,  .  .  .   

|------------------------------------------------|
|------------------------------------------------|
|------------------------------------------------|
|2-----------------------5-----------------------|
|0-----------0---0---0---3-----------3---3---3---|
|------------------------------------------------|
 ,  .  .  .  ,  .  .  .  ,  .  .  .  ,  .  .  .   

|------------------------------------------------|
|------------------------------------------------|
|------------------------------------------------|
|------------------------------------------------|
|5-----------------------5-----------------------|
|3-----------3---3---3---3-----------3---3---3---|
 ,  .  .  .  ,  .  .  .  ,  .  .  .  ,  .  .  .   

|------------------------------------------------|
|------------------------------------------------|
|------------------------------------------------|
|------------------------------------------------|
|5-----------------------5-----------------------|
|3-----------3---3---3---3-----------3---3---3---|
 ,  .  .  .  ,  .  .  .  ,  .  .  .  ,  .  .  .   

|------------------------------------------------|
|------------------------------------------------|
|------------------------------------------------|
|4-----------------------4-----------------------|
|2-----------2---2---2---2-----------2---2---2---|
|------------------------------------------------|
 ,  .  .  .  ,  .  .  .  ,  .  .  .  ,  .  .  .   

|------------------------------------------------|
|------------------------------------------------|
|------------------------------------------------|
|------------------------------------------------|
|5-----------------------5-----------------------|
|3-----------3---3---3---3-----------3---3---3---|
 ,  .  .  .  ,  .  .  .  ,  .  .  .  ,  .  .  .   

|------------------------------------------------|
|------------------------------------------------|
|------------------------------------------------|
|------------------------------------------------|
|3-----------------------------------------------|
|1-----------------------------------------------|
 ,  .  .  .  ,  .  .  .  ,  .  .  .  ,  .  .  .   

|------------------------------------------------|
|------------------------------------------------|
|------------------------------------------------|
|------------------------------------------------|
|(3)---------------------------3--------3--------|
|(1)---------------------------1--------1--------|
 ,  .  .  .  ,  .  .  .  ,  .  .  .  ,  .  .  .   

|------------------------------------------------|
|------------------------------------------------|
|------------------------------------------------|
|------------------------------------------------|
|2-----------------------------------------------|
|0-----------------------------------------------|
 ,  .  .  .  ,  .  .  .  ,  .  .  .  ,  .  .  .   

Now should be guitar solo but it was too
difficult for me.


 I
|------------------------|------------------------|
|------------------------|------------------------|
|------------------------|------------------------|
|------------5-----7-----|8----7-8-7--5-----------|
|------7-----------------|------------------8-----|
|5-----------------------|------------------------|
 ,  .  .  .  ,  .  .  .   ,  .  .  .  ,  .  .  .   

|------------------------|
|------------------------|
|------------------------|
|------------------------|
|7-----5-----------7-----|
|------------8-----------|
 ,  .  .  .  ,  .  .  .   

     
Добавлено: 10.06.2013
Другие материалы по этой песне:
  • Аккорды и текст

Страница создана 03.06.2012
http://primanota.ru/tourniquet/spectrophobic-dementia-chords.htm
Привет, Гость.
Предлагаем пройти революционный курс по гитаре.
Подарок от PrimaNota.Ru, забирай!