PrimaNota.ru - самый крупный в мире бесплатный архив песенных текстов, аккордов, табулатур и нот


Tourniquet - Sola Christus - текст песни, таба, видео

Регистрация Запомнить меня
Войти через:  Facebook Google Twitter Vk Yandex Mail.ru

Tourniquet - Sola Christus - текст песни, таба, видео

Печатать
Просмотров: 97
Уроки эстрадного вокала в Санкт-Петербурге
		   Sola Christus
Tourniquet
Vanishing Lessons
Intense Records 1994

Tune to Eb [~]=trill

Intro
|---------------|---------------|---------------|---------------|
|---------------|---------------|---------------|---------------|
|---------------|---------------|---------------|---------------|
|--2--2--2-5-3--|--3-2--3-2--3--|--2--2--2-5-3--|--3-2--3-2--3--|
|--2--2--2-5-3--|--3-2--3-2--3--|--2--2--2-5-3--|--3-2--3-2--3--|
|--0--0--0-3-1--|--1-0--1-0--1--|--0--0--0-3-1--|--1-0--1-0--1--|

|---------------|-----------------|---------------|-------|
|---------------|-----------------|---------------|-------|
|---------------|-----------------|---------------|-------|
|--2--2--2-5-3--|--3-2--3-2--3-5--|--8--7--5-3-2--|--(2)--|
|--2--2--2-5-3--|--3-2--3-2--3-5--|--8--7--5-3-2--|--(2)--|
|--0--0--0-3-1--|--1-0--1-0--1-3--|--6--5--3-1-0--|--(0)--|


Note:On the second and fourth sections of Riff 1 below one guitar plays 
the power chord and one just plays the root(i.e. sixth string only).
Riff 1 x3 3/4
|-------------|---------|----------------|-----------------|
|-------------|---------|----------------|-----------------|
|-------------|---------|----------------|-----------------|
|--2--2--4-5--|----9----|--2-2-2-2--4-5--|--12-11--9-11-9--|
|--2--2--4-5--|----9----|--2-2-2-2--4-5--|--12-11--9-11-9--|
|--0--0--2-3--|----7----|--0-0-0-0--2-3--|--10--9--7--9-7--|
Not inclined to come to Him
Inability within
Inward call achieves His end
Sovereignly commenced

Chorus intro (give the fifth note a pull up)
|------------------|
|------------------|
|------------------|
|--7\6--7\6--6--4--|
|--5\4--5\4--4--2--|
|------------------|

Chorus x4
|--------------|--------------|-------------------|
|--------------|--------------|-------------------|
|--------------|--------------|-------------------|
|--2-2---------|--4-5--4~5----|--4----------------|
|--2-2------2--|-----------5--|----5-4-5-3-5-2----|
|--0-0--2-3----|--------------|----------------1--|
Sola Gratia
Convenant to covenant salvation never changed
Sola Gratia

Riff 1 x3 3/4  (fourth time)
|-------------|------------|----------------|-----------------|
|-------------|------------|----------------|-----------------|
|-------------|------(11)--|----------------|-----------------|
|--2--2--4-5--|----9-(11)--|--2-2-2-2--4-5--|--12-11--9-11-9--|
|--2--2--4-5--|----9-( 9)--|--2-2-2-2--4-5--|--12-11--9-11-9--|
|--0--0--2-3--|----7-------|--0-0-0-0--2-3--|--10--9--7--9-7--|
Quickened of the third person
Regenerate competence
Not my own, this faith a gift
Boasting set adrift

Chorus intro (give the fifth note a pull up)
|------------------|
|------------------|
|------------------|
|--7\6--7\6--6--4--|
|--5\4--5\4--4--2--|
|------------------|

Chorus x4                                         [ 4.      ]
|--------------|--------------|-------------------|---------|
|--------------|--------------|-------------------|---------|
|--------------|--------------|-------------------|---------|
|--2-2---------|--4-5--4~5----|--4----------------|----2----|
|--2-2------2--|-----------5--|----5-4-5-3-5-2----|----2----|
|--0-0--2-3----|--------------|----------------1--|----0----|
Sola Fide
Credited as righteousness, looking far ahead
Sola Fide

Middle part (don't strain yourself) Middle & end of middle part x4
|-----------------------------| |--------------------------------|
|-----------------------------| |--------------------------------|
|-----------------------------| |--------------------------------|
|--2-2--2-2--2-2-2-2-2-2-2-2--| |-11-11--9-9-9-11--9-9-9-11--12--|
|--2-2--2-2--2-2-2-2-2-2-2-2--| |-11-11--9-9-9-11--9-9-9-11--12--|
|--0-0--0-0--0-0-0-0-0-0-0-0--| |--9--9--7-7-7--9--7-7-7--9--10--|

Verse intro
|-----------------------|
|-----------------------|
|-----------------------|
|-----------------------|
|--12\11--12\11--11--9--|
|--10\-9--10\-9---9--7--|

Riff 1 x3 3/4  (fourth time)
|-------------|------------|----------------|-----------------|
|-------------|------------|----------------|-----------------|
|-------------|------(11)--|----------------|-----------------|
|--2--2--4-5--|----9-(11)--|--2-2-2-2--4-5--|--12-11--9-11-9--|
|--2--2--4-5--|----9-( 9)--|--2-2-2-2--4-5--|--12-11--9-11-9--|
|--0--0--2-3--|----7-------|--0-0-0-0--2-3--|--10--9--7--9-7--|
Pardoned of iniquity
Forgotten, cast into the sea
Righteousness ascribed to me
Christ alone completed He

Chorus intro (give the fifth note a pull up)
|------------------|
|------------------|
|------------------|
|--7\6--7\6--6--4--|
|--5\4--5\4--4--2--|
|------------------|

Chorus x10                                         
|--------------|--------------|-------------------|
|--------------|--------------|-------------------|
|--------------|--------------|-------------------|
|--2-2---------|--4-5--4~5----|--4----------------|
|--2-2------2--|-----------5--|----5-4-5-3-5-2----|
|--0-0--2-3----|--------------|----------------1--|
Sola Christus
Christ alone completed me
Sola Christus

Fulfilled the Father's Holy law  Unblemished lamb redemption brought  
Sinless one recieved the wrath  Justifying filthy men


My all time favorite Tourniquet song. I wish they would have stayed like 
this.
http://www.geocities.com/sunsetstrip/palms/8550/index.html
Suggestions, corrections, or hello's welcome!
James Donnelly   [conorlarkin@hotmail.com]
     
Добавлено: 30.09.2013
Другие материалы по этой песне:
  • Аккорды и текст

Страница создана 15.06.2012
http://primanota.ru/tourniquet/sola-christus-chords.htm
Привет, Гость.
Предлагаем пройти революционный курс по гитаре.
Подарок от PrimaNota.Ru, забирай!