PrimaNota.ru - самый крупный в мире бесплатный архив песенных текстов, аккордов, табулатур и нот


Tourniquet - Proprioception - таба, видео

Регистрация Запомнить меня
Войти через:  Facebook Google Twitter Vk Yandex Mail.ru

Tourniquet - Proprioception - таба, видео

Печатать
Просмотров: 55
		   Proprioception
From the Album "Crawl to China"
by Tourniquet
copyright 1997 Benson Records
Transcribed by Zeb Lang
zebl@psiaustin.com

This is a cool but tough song, many of the notes were hard to figure out.
I think I came close, it sounds good to me anyway.
 
I use a drop "Z" tuning (like drop D but not really).  I don't know the 
actual pitch, I just tune the 6th string to the lowest note in the song. 

       Drop D Tuning                                                                 
E---||--------------------------------------10--------|-----------------
B---||-----------------7--8--8p7--x--x--9^------x--x--|-----------------
G---||*----------------7--7--7-7--x--x----------x--x--|--10--10\9-------
D---||*----------------7--7-------x--x----------x--x--|-----------------
A---||------------------------------------------------|-----------------
E---||---3p0-----0--0---------------------------------|------------0----
                                                                        

                                                                        
E-----------------------|------------------------------------------|----
B-----------------3-----|----------------7--8--8p7--x--x-----------|----
G-----------------2--2--|----------------7--7--7-7--x--x-------10--|----
D--------------------2--|----------------7--7-------x--x-----------|----
A-----------------------|---------------------------------10^------|----
E---0--3p0--0--0--------|--3p0-----0--0----------------------------|----
                                                                        

                                                                        
E-------------------------------------------||--||----------------------
B----------------------------------/10------||--||----------------------
G---------------------------------------8--*||--||*--7--7--7--7---------
D------------------------------------------*||--||*--7--7--7--7---------
A-------------------------------------------||--||---5--5--5--5---------
E---0--7--0--8--0--9--0--9/10--0--0---------||--||----------------------
                                                                        

                                                                        
E---------------||------------------------------||--||------------------
B---------------||------------------------------||--||------------------
G---------------||--5--5--5--5-----------------*||--||*-----------------
D---7--7--\--5--||--5--5--5--5-----6--6--/--7--*||--||*--0--------------
A---7--7--\--5--||--3--3--3--3-----6--6--/--7---||--||---0--------------
E---7--7--\--5--||-----------------6--6--/--7---||--||---0--------------
                                                                        

                                                                        
E---0----------------------|-----------0-----------------|--------------
B---3----------------------|-----------1-----------------|--------------
G---2----------------------|-----------0-----------------|--------------
D---0------------------/3--|--2--------2-----------------|--------3-----
A--------------------------|-----------3--------------0--|--1-----3-----
E--------------------------|-----------------------------|--------3-----
                                                                        

                                                                        
E---------------|-----------------------||-----||-----------------------
B---------------|-----------------------||-----||-----------------------
G---------------|----------------------*||-----||*----------------------
D---------------|-------0--------------*||--0--||*----------------------
A---------------|-------0---------------||--0--||------------------5----
E------------2--|/5-----0---------------||--0--||---0--0--0--0--0-------
                                                                        

                                                                        
E---|-----------------------|--------------------|----------------------
B---|-----------------------|--------------------|----------------------
G---|-----------------------|--------------------|----------------------
D---|-----------------------|--------------------|--------5--/--7--\----
A---|--------------------6--|-----------------4--|--------3--/--5--\----
E---|-----0--0--0--0--0-----|--0--0--0--0--0-----|--0--0----------------
                                                                        

                                                                        
E------|--------------------|-----------------------|-------------------
B------|--------------------|-----------------------|-------------------
G------|--------------------|-----------------------|-------------------
D---5--|--------------------|-----------------------|-------------------
A---3--|-----------------5--|--------------------6--|-------------------
E------|--0--0--0--0--0-----|-----0--0--0--0--0-----|--0--0--0--0--0----
                                                                        

                                                                        
E------|---------------------||--||--------------------------|----------
B------|---------------------||--||--------------------------|----------
G------|--------5-----------*||--||*-------------------------|----------
D------|--------3--5--/--7--*||--||*----------0-----0--0--0--|----------
A---4--|-----------3--/--5---||--||-----------0-----0--0--0--|----------
E------|--0--0---------------||--||---3p0--0--0-----0--0--0--|--3p0-----
                                                                        

                                                                        
E---------------------|-------------------------|-----------------------
B---------------------|-------------------------|-----------------------
G---------------------|-------------------------|-----------------------
D------0-----0--0--0--|----------0-----0--0--0--|-----------------------
A------0-----0--0--0--|----------0-----0--0--0--|-----------------------
E---0--0-----0--0--0--|--3p0--0--0-----0--0--0--|--3p0-----5h6p5h6------
                                                                        

                                                                        
E--------||--||--------------------------|--|---------------------------
B--------||--||--------------------------|--|---------------------------
G-------*||--||*-------------------------|--|---------------------------
D-------*||--||*----------5-----5--5--5--|--|----------5-----5--5--5----
A--------||--||-----------5-----5--5--5--|--|----------5-----5--5--5----
E---p5---||--||---6p5--5--5-----5--5--5--|--|--6p5--5--5-----5--5--5----
                                                                        

                                                         Bass           
E---|-------------------------|----------------------||-----------------
B---|-------------------------|----------------------||-----------------
G---|-------------------------|---------------------*||-----------------
D---|----------5-----5--5--5--|---------------------*||-----------------
A---|----------5-----5--5--5--|----------3h4p3h4p3---||-----------------
E---|--6p5--5--5-----5--5--5--|--6p5-----------------||--5-----5--5-----
                                                                        

                                              Blues Guitar              
E------------------|-----------------------------|----------------------
B------------------|-----------------------------|--------13^--13-------
G------------------|-----------------------------|-12~~~----------------
D------------------|-----------------------------|----------------------
A---------------1--|--------------------------1--|/---------------------
E------3-----0-----|--5-----5--5-----3-----0-----|----------------------
                                                                        

                                                                        
E----------------------||----------------|---------3---------------|----
B---11--13-----13--11--||----------------|------3------------------|----
G----------------------||----------3-----|--3^--------5--3-----3^--|----
D----------------------||-----3h5--------|------------------5------|----
A----------------------||--5-------------|-------------------------|----
E----------------------||----------------|-------------------------|----
                                                                        

                                Repeat other parts                                        
E-----------------------------------------------------------------------
B---/--5--\--3-----/--3--\--0-------------------------------------------
G---/--5--\--3-----/--3--\--0-------------------------------------------
D---/--5--\--3-----/--3--\--0-------------------------------------------
A-----------------------------------------------------------------------
E-----------------------------------------------------------------------
                                     
Добавлено: 29.07.2013
Вам также может быть интересно:
Другие материалы по этой песне:
  • Аккорды и текст

Страница создана 29.07.2013
http://primanota.ru/tourniquet/proprioception-chords.htm
Привет, Гость.
Предлагаем пройти революционный курс по гитаре.
Подарок от PrimaNota.Ru, забирай!