PrimaNota.ru - самый крупный в мире бесплатный архив песенных текстов, аккордов, табулатур и нот


Tourniquet - Enveloped In Python - текст песни, таба, видео

Регистрация Запомнить меня
Войти через:  Facebook Google Twitter Vk Yandex Mail.ru

Tourniquet - Enveloped In Python - текст песни, таба, видео

Печатать
Просмотров: 72
		   Enveloped in Python
From the Album "Crawl to China"
by Tourniquet
Words & Music by Ted Kirkpatrick
copyright 1997 Benson Records
Transcribed by Zeb Lang
Lang@inetport.com

Note: n.h. means natural harmonic
                            
        Fig. 1                            First and Second ending     3x        
E---||----------------------------------|-12-11-----------------------||--
Bb--||----------------------------------|-------13-12-----------------||--
Gb--||*---------------------------------|-------------13-13b(14)r-13-*||--
Db--||*-2-----------2-------2---2-------|----------------------------*||--
Ab--||--2---2-2-2-2-2---2-2-2---2---2-2-|-----------------------------||--
Eb--||--1p0-0-0-0-0-1p0-0-0-1p0-1p0-0-0-|-----------------------------||--
                                                                           

    Third Ending                       Fig. 2      6x                        
E---12-11----------------------||------------------||---------------------
Bb--------12-13-12-------------||------------------||---------------------
Gb-----------------13b(14)r-13-||*----------------*||---------------------
Db-----------------------------||*-2-----2---2--2-*||---------------------
Ab-----------------------------||--1-----1---1--1--||-14-\----------------
Eb-----------------------------||--0-----0---0--0--||-12-\----------------
                                                                           
    
         Fig. 3                                     n.h.                  
E---||-------------------------------------------|--------------------|---
Bb--||-------------------------------------------|----------7-8p7-----|---
Gb--||*------------------------------------------|--------7-------7---|---
Db--||*-/-9-\-8-/-9------------------------------|------7-----------7-|---
Ab--||--/-7-\-6-/-7---8-/-9-/-10-------5-/-9-\-7-|---(5)--------------|---
Eb--||----------------6-/-7-/-8--0-0-0-3-/-7-\-5-|-5------------------|---
                                                                           

                                                                  2x         
E--------------------------------------------|--------------------||------
Bb-------------------------------------------|---------------3----||------
Gb-------------------------------------------|-------5-----4-7---*||------
Db--/-9-\-8-/-9------------------------------|-----7-----5-------*||------
Ab--/-7-\-6-/-7---8-/-9-/-10-------5-/-9-\-7-|---7-----6----------||------
Eb----------------6-/-7-/-8--0-0-0-3-/-7-\-5-|-5------------------||------
                                                                           

Play   (Fig.1 - 2x), (Fig. 2 - 5x), (Fig. 3 - 2x), (Fig 1 - 2x)                               


    n.h.              n.h.                                                 
E-----------------------------------------|
Bb----------------------------------------|
Gb--(5)--------------(5)-(5)--------------|
Db------2-2-2---2-2-2-------2-2-2---2-2-2-|
Ab------2-2-2---2-2-2-------2-2-2---2-2-2-|
Eb------0-0-0---0-0-0-------0-0-0---0-0-0-|
                                                                           

     n.h.                n.h.                                               
E-----------------------------------------------|
Bb-(5)-(5)-------------(5)-(5)------------------|
Gb----------------------------------------------|
Db--------2-2-2---2-2-2-------------------------|
Ab--------2-2-2---2-2-2-------------------------|
Eb--------0-0-0---0-0-0-------0-0-0-1-1-1/5-5-4-|
                                                                           

    Two or three guitars alternating harmonics & part below                                
E--------------------------------------------------------------------------
Bb-------------------------------------------------------------------------
Gb-------------------------------------------------------------------------
Db----------2--------------------------------------------------------------
Ab------2h3----------------------------------------------------------------
Eb-------------------------------------------------------------------------
                                                                           


      (3:37)                                                               
E---------------------------------------------------------------------|----
Bb--------------------------------------------------------------------|----
Gb----3---------------3-3---------------3-3---------------3-3---------|----
Db----2---------------2-2---------------2-2---------------2-2---------|----
Ab------2-2-2---2-2-2-----2-2-2---2-2-2-----2-2-2---2-2-2-------2-2-2-|----
Eb------0-0-0---0-0-0-----0-0-0---0-0-0-----0-0-0---0-0-0-------0-0-0-|----
                                                                           

                                      Slow it down                         
E---------------|-----------------------------------------------------|----
Bb--------------|-----------------------------------------------------|----
Gb--------------|-1---------------1-1---------------1-1---------------|----
Db--------------|-0---------------0-0---------------0-0---------------|----
Ab--------------|---2-2-2---2-2-2-----2-2-2---2-2-2-----2-2-2---2-2-2-|----
Eb--1-1-1/5-5-4-|---0-0-0---0-0-0-----0-0-0---0-0-0-----0-0-0---0-0-0-|----
                                                                           

                                                                           
E--------------------------------------------------------------------------
Bb--------------8-8-8-8-8---8---8------------------------------------------
Gb------6-6-----6-6-6-6-6---6---6------------------------------------------
Db------5-5-----5-5-5-5-5---5---5------------------------------------------
Ab------4-4----------------------------------------------------------------
Eb-------------------------------------------------------------------------



Questions, comments, suggestions, complaints:

    Lang@inetport.com     
Добавлено: 04.08.2013
Другие материалы по этой песне:
  • Аккорды и текст

Страница создана 12.07.2012
http://primanota.ru/tourniquet/enveloped-in-python-chords.htm
Привет, Гость.
Предлагаем пройти революционный курс по гитаре.
Подарок от PrimaNota.Ru, забирай!