PrimaNota.ru - самый крупный в мире бесплатный архив песенных текстов, аккордов, табулатур и нот


Tourniquet - Drowning Machine - текст песни, таба, бас-таба, видео

Регистрация Запомнить меня
Войти через:  Facebook Google Twitter Vk Yandex Mail.ru

Tourniquet - Drowning Machine - текст песни, таба, бас-таба, видео

Печатать
Просмотров: 96
		   Drowning Machine
Tourniquet

Intro:
BASS 

1)--------------------------------------------------------------------
2)--------------5------------------------------------5----5--7--7~~~--
3)-----------5----7----7--5--7--5-----------------5----7--------------
4)-0---5--7------------------------7----0---5--7----------------------

GUITAR 1 
same as bass x2
then same as GUITAR 2 x2
GUITAR 2 
heavy distortion
1)--------------------------------------------------------------------
2)--------------------------------------------------------------------
3)--------------------------------------------------------------------
4)--------------------------------------------------------------------
5)----------3--------------3------------------------------------------
6)-0--3--5----5--5--3--5----5--5-3-5----------------------------------

GUITAR 1 & 2
RIFFA
1)--------------------------------------------------------------------
2)--------------------------------------------------------------------
3)----------------------------------------------5---5\4---------------
4)-2---x--x--x--x--x-x-x--x--x--x----x--x-x-x---5---5\4---------------
5)-2---x--x--x--x--x-x-x--x--x--x----x--x-x-x---3---3\2---------------
6)-0---x--x--x--x--x-x-x--x--x--x----x--x-x-x------------------------

GUITAR 1

1)--------------------------------------------------------------------
2)--------------------------------------------------------------------
3)--------------------------------------------------------------------
4)--------------3--5--6-----------------------------------------------
5)--------3--5-----------4--------------------------------------------
6)--3--5--------------------------------------------------------------

then RIFF A again

1)--------------------------------------------------------------------
2)--------------------------------------------------------------------
3)--------------------------------------------------------------------
4)-------------5--7--8------------------------------------------------
5)--------5--7----------6---------------------------------------------
6)--5--7--------------------------------------------------------------
     
Добавлено: 02.10.2013
Другие материалы по этой песне:
  • Аккорды и текст

Страница создана 06.04.2012
http://primanota.ru/tourniquet/drowning-machine-chords.htm
Привет, Гость.
Предлагаем пройти революционный курс по гитаре.
Подарок от PrimaNota.Ru, забирай!