PrimaNota.ru - самый крупный в мире бесплатный архив песенных текстов, аккордов, табулатур и нот


Tourniquet - Claustrospelunker - текст песни, таба, бас-таба, видео

Регистрация Запомнить меня
Войти через:  Facebook Google Twitter Vk Yandex Mail.ru

Tourniquet - Claustrospelunker - текст песни, таба, бас-таба, видео

Печатать
Просмотров: 92
Уроки эстрадного вокала в Санкт-Петербурге
		   Claustrospelunker
From the Album "Crawl to China"
by Tourniquet
copyright 1997 Benson Records
Transcribed by Zeb Lang
lang@inetport.com

I use a drop "Z" tuning (like drop D but not really).  I don't know the 
actual pitch, I just tune the 6th string to the lowest note in the song. 

         Chorus                                                         
E---||------------------------------------------|-----------------------
B---||------------------------------------------|-----------------------
G---||*-----------------------------------------|-----------------------
D---||*--5--h--7--p--5--5--\--2--0--1--2--x--x--|--10--9--7--x--12------
A---||---5--h--7--p--5--5--\--2--0--1--2--x--x--|--10--9--7--x--12------
D---||---5--h--7--p--5--5--\--2--0--1--2--x--x--|--10--9--7--x--12------
                                                                        

                                                           Verse 1      
E----------------||-----------------------------------||----------------
B----------------||-----------------------------------||----------------
G---------------*||-----------------------------------||*---------------
D---7--9--x--x--*||--5--h--7--p--5--5--\--2--0--1--2--||*--2--2--x------
A---7--9--x--x---||--5--h--7--p--5--5--\--2--0--1--2--||---2--2--x------
D---7--9--x--x---||--5--h--7--p--5--5--\--2--0--1--2--||---2--2--x------
                                                                        

                                                                        
E----------------------||--||------------------------------------||-----
B----------------------||--||------------------------------------||-----
G---------------------*||--||*----------------------------------*||-----
D---2--2--x--2--x--x--*||--||*--10--10--x--10--10--x--10--x--x--*||-----
A---2--2--x--2--x--x---||--||---10--10--x--10--10--x--10--x--x---||-----
D---2--2--x--2--x--x---||--||---10--10--x--10--10--x--10--x--x---||-----
                                                                        

                                                                        
E---||-------------------------------||--||-----------------------------
B---||-------------------------------||--||-----------------------------
G---||*-----------------------------*||--||*----------------------------
D---||*--5--5--x--5--5--x--5--x--x--*||--||*--12--12--x--12--12--x------
A---||---5--5--x--5--5--x--5--x--x---||--||---12--12--x--12--12--x------
D---||---5--5--x--5--5--x--5--x--x---||--||---12--12--x--12--12--x------
                                                                        

                                                                        
E--------------||-----------------------------|-------------------------
B--------------||-----------------------------|-------------------------
G-------------*||-----------------------------|-------------------------
D---12--x--x--*||--9--9--x--9--9--x--9--x--x--|--9--9--x--x--7--x--x----
A---12--x--x---||--9--9--x--9--9--x--9--x--x--|--9--9--x--x--7--x--x----
D---12--x--x---||--9--9--x--9--9--x--9--x--x--|--9--9--x--x--7--x--x----
                                                                        

                                                                        
E------------||------------------------------------||--||---------------
B------------||------------------------------------||--||---------------
G------------||*----------------------------------*||--||*--------------
D---9--x--x--||*--10--10--x--10--10--x--10--x--x--*||--||*--5--5--x-----
A---9--x--x--||---10--10--x--10--10--x--10--x--x---||--||---5--5--x-----
D---9--x--x--||---10--10--x--10--10--x--10--x--x---||--||---5--5--x-----
                                                                        

                                                                        
E----------------------||----------------------------------|------------
B----------------------||----------------------------------|------------
G---------------------*||----------------------------------|------------
D---5--5--x--5--x--x--*||--12--12--x--12--12--x--12--x--x--|------------
A---5--5--x--5--x--x---||--12--12--x--12--12--x--12--x--x--|------------
D---5--5--x--5--x--x---||--12--12--x--12--12--x--12--x--x--|------------
                                                                        

    Repeat chorus & verse (1st Ending)                                  
E---------------------------------------------------||------------------
B---------------------------------------------------||------------------
G--------------------------------------------------*||------------------
D---9--------------10--12--------------------------*||------------------
A---9--------------10--12---------------------------||------------------
D---9--------------10--12---------------------------||------------------
                                                                        

    (2nd ending)  End Verse               Solo/Interlude                
E------------------------------------||--------------------|------------
B------------------------------------||--------------------|------------
G------------------------------------||*-----------4--3h4--|p3----------
D---9-----------10-----------------9\||*--2--4--5----------|-------4----
A---9-----------10-------------------||--------------------|------------
D---9-----------10-------------------||--------------------|------------
                                                                        

                                                                        
E----------------|-------------------|----------------------------------
B----------------|----------4h5--4h5p|--4-------------------------------
G----------------|-------------------|-----------5----------------------
D---\1--------4--|\2--4--5-----------|--------------------7-------------
A----------------|-------------------|----------------------------------
D----------------|-------------------|-----------------------------9----
                                                                        

                                                                        
E----|-------------------------|----------------------|-----------------
B----|-------------------------|----------------------|-----------------
G----|-------------------------|----------------------|-----------------
D----|----------------------9--|--7-----10--9^--------|-----------------
A---h|---------6^--6~~~--------|--------------~~~-----|-----------------
D----|--10---------------------|-------------------5--|\1-----2--4------
                                                                        

                                         Repeat Chorus                  
E------------|-----------------------||---------------------------------
B------------|-----------------------||---------------------------------
G------------|-----3-----4~~~-----9\*||---------------------------------
D------------|----------------------*||---------------------------------
A------3~~~--|--2--------------------||---------------------------------
D------------|-----------------------||---------------------------------
                                                                        

               Ending (sort of maybe)                                   
E------||---0--0-----0-----0--0-----0-----0--0--------0-----0--0--------
B------||---0--0-----0-----0--0-----0-----0--0--------0-----0--0--------
G------||*--0--0-----0-----0--0-----0-----0--0--------0-----0--0--------
D------||*--2--2-----2-----2--2-----2-----2--2--------2-----2--2--------
A------||---2--2-----2-----2--2-----2-----2--2--------2-----2--2--------
D------||---2--2-----2-----2--2-----2-----2--2--------2-----2--2--------
                                                                        

                                                                        
E---0--|--0--0-----0-----0--0-----0-----0--0-----0-----0--0-----0-------
B---0--|--1--1-----1-----1--1-----1-----3--3-----3-----3--3-----3-------
G---0--|--0--0-----0-----0--0-----0-----2--2-----2-----2--2-----2-------
D------|--2--2-----2-----2--2-----2-----0--0-----0-----0--0-----0-------
A------|--3--3-----3-----3--3-----3-----0--0-----0-----0--0-----0-------
D------|--------------------------------0--0-----0-----0--0-----0-------
                                                                        

                                                                        
E----||-----------------------------------------------------------------
B----||-----------------------------------------------------------------
G---*||-----------------------------------------------------------------
D---*||-----------------------------------------------------------------
A----||-----------------------------------------------------------------
D----||-----------------------------------------------------------------
     
Добавлено: 10.08.2013
Другие материалы по этой песне:
  • Аккорды и текст

Страница создана 08.06.2012
http://primanota.ru/tourniquet/claustrospelunker-chords.htm
Привет, Гость.
Предлагаем пройти революционный курс по гитаре.
Подарок от PrimaNota.Ru, забирай!