PrimaNota.ru - самый крупный в мире бесплатный архив песенных текстов, аккордов, табулатур и нот


Tourniquet - Bearing Gruesome Cargo - текст песни, таба, видео

Регистрация Запомнить меня
Войти через:  Facebook Google Twitter Vk Yandex Mail.ru

Tourniquet - Bearing Gruesome Cargo - текст песни, таба, видео

Печатать
Просмотров: 156
Уроки эстрадного вокала в Санкт-Петербурге
Song:  " Bearing Gresome Cargo"
		By:  Ted Kirkpatrick
		(c)1994  Broken Songs/ Biomedical Music

		tabbed by:  Kevin Usher
		Sept:  1995

RIFF A)

--------------------------------|--------------------------------|
-5-3----------------------------|-5-3----------------------------|
-----4-3-2-0-----2----3----4----|-----4-3-2-0-----2----4---------|
--------------------------------|---------------------------2----|
--------------------------------|--------------------------------|
--------------------------------|--------------------------------|

--------------------------------|--------------------------------|
-5-3-------------3----2----1----|-5-3----------------------------|
-----4-3-2-0--------------------|-----4-3-2-0-----4----3---------|
--------------------------------|---------------------------2----|
--------------------------------|---------------------------2----|
--------------------------------|---------------------------0----|


RIFF B)

--------------------------------|--------------------------------|
----------5---------------------|----------5---------------------|
------2-4--------2----3----4----|------2-4--------2----4---------|
-2------------------------------|-2-------------------------2----|
--------------------------------|--------------------------------|
--------------------------------|--------------------------------|

--------------------------------|--------------------------------|
----------5------3----2----1----|----------5---------------------|
------2-4-----------------------|------2-4--------5----4---------|
-2------------------------------|-2-------------------------2----|
--------------------------------|---------------------------2----|
--------------------------------|---------------------------0----|


RIFF C)

---------3----------------------|---------3----------------------|
-----3-5---5--------------------|-----3-5---5--------------------|
-3-4----------------------------|-3-4---------3----2---2---------|
-------------------2-2-----2-2--|-------------------------5--2---|
-------------------2-2-----2-2--|--------------------------------|
-------------------0-0-----0-0--|--------------------------------|


RIFF D)

--------------------------------|
--------------------------------|
--------------------------------|
-------5------------------------|
-5--7-----7---------------------|
--------------0-3-0-5-0-6-0-7-0-|

RIFF E)

-------3------------------------|
-3--5-----5---------------------|
--------------------------------|    X 4
--------------------------------|
--------------------------------|
--------------------------------|

--------------------------------|
--------------------------------|
--------------------------------|    X 4
-------5------------------------|
-5--7-----7---------------------|
--------------------------------|

--------------------------------|
--------------------------------|    X 4
-------7------------------------|
-7--9-----9---------------------|
--------------------------------|
--------------------------------|


RIFF F)

-----------------3--------------|--------------------------------|
-----2---4-----------0---4------|-----2---4-----------2---4------|
-2-----------2---------------2--|-2-----------2---5-----------2--|
--------------------------------|--------------------------------|
--------------------------------|--------------------------------|
--------------------------------|--------------------------------|

SOLO

-5^6"5----5-3---5-3-------------|---7-5--7-5------------3--------|
------------------------5-------|---------------3-5-----3--------|
--------------------------------|--------------------------------|
--------------------------------|--------------------------------|
--------------------------------|--------------------------------|
--------------------------------|--------------------------------|

-11^-10---10--------------------|-12-----------------------------|
-----------11^-10^10------------|--12---12-----------------------|
--------------------------------|---11---11---12-----------------|
--------------------------------|---------10---11--12------------|
--------------------------------|---------------9---11----------9|
--------------------------------|--------------------10/12-6^6---|


SONG ORDER:

RIFF A)  X 3

RIFF B)  X 5

RIFF C)  X 4

RIFF B)  X 2

RIFF A)  X 2

RIFF D)  X 12  gtr 2  -->   RIFF E) gtr1

RIFF C)  X 1

RIFF D)  X 9   gtr 2  -->  (gtr 1  solo)

RIFF B)  X 4

RIFF F)  X 2

RIFF D)  X 8

end on E chord
Добавлено: 20.05.2012
Другие материалы по этой песне:
  • Аккорды и текст

Страница создана 17.04.2012
http://primanota.ru/tourniquet/bearing-gruesome-cargo-chords.htm
Привет, Гость.
Предлагаем пройти революционный курс по гитаре.
Подарок от PrimaNota.Ru, забирай!