PrimaNota.ru - самый крупный в мире бесплатный архив песенных текстов, аккордов, табулатур и нот


Tourniquet - Bats - текст песни, таба, видео

Регистрация Запомнить меня
Войти через:  Facebook Google Twitter Vk Yandex Mail.ru

Tourniquet - Bats - текст песни, таба, видео

Печатать
Просмотров: 86
		   Bats
From the album "Crawl to China"
By Tourniquet
copyright 1997 Benson Records
Transcribed by Zeb Lang
lang@inetport.com

I use a drop "Z" tuning (like drop D but not really).  I don't know the 
actual pitch, I just tune the 6th string to the lowest note in the song. 


         Intro                                4x  Rhythm 1              
E---||----------------------------------------||--------3---------------
B---||----------------------------------------||--------3---------------
G---||*--------------------------------------*||--------4---------------
D---||*--4--/--5--5--5-----5--5--\--0--0--0--*||-----5------------------
A---||---4--/--5--5--5-----5--5--\--0--0--0---||------------------------
D---||---4--/--5--5--5-----5--5--\--0--0--0---||--5---------------------
                                                                        

      Tricky!                                                           
E-----------------|-----------------------|--------3--------------------
B---------3h5-----|--------5-----------3--|--------3--------------3-----
G--------------5--|--------4-----------2--|--------4-----------5--------
D------5----------|--------2-----------0--|-----5-----------5-----------
A---3-------------|-----2-----------0-----|--------------3--------------
D-----------------|--2-----------0--------|--5--------------------------
                                                                        

                                         Intro - 4x                     
E-------------|-----------------------|--------------------------|------
B---h5--------|--------5-----------3--|--------------------------|------
G-------5-----|--------4-----------2--|--------------------------|------
D----------5--|--------2-----------0--|--------------------------|------
A-------------|-----2-----------0-----|--------------------------|------
D-------------|--2-----------0--------|--------------------------|------
                                                                        

    Rhythm 1                                                            
E------------------|---------------------------------------|------------
B------------------|--------5-----------8-----8p5-----8p5--|------------
G------------------|--------5-----------7-----7-7-----7-7--|------------
D------------------|-----5--5-----------5-----5-5-----5-5--|------------
A------------------|--3------------------------------------|-----0------
D------------------|--------------5------------------------|--0---------
                                                                        

                                                                        
E-------------------------------------|--------0------------------------
B---3--------------8-----8p5-----8p5--|--------5-----------8-----8------
G---2--------------7-----7-7-----7-7--|--------5-----------7-----7------
D---0--------------5-----5-5-----5-5--|-----5--------------5-----5------
A-------------------------------------|--3------------------------------
D------------5------------------------|--------------5------------------
                                                                        

                                              Intro - 4x                
E---------------|--------------------------|----------------------------
B---p5-----8p5--|--------3--------------8--|----------------------------
G----7-----7-7--|--------2--------------7--|----------------------------
D----5-----5-5--|--------0--------------5--|----------------------------
A---------------|-----0--------------------|----------------------------
D---------------|--0--------------5--------|----------------------------
                                                                        

       Rhythm 1                                                         
E---|-----------------|--------3-------------------|--------------------
B---|-----------------|--------3-----------3h5-----|--------5-----------
G---|-----------------|--------4----------------5--|--------4-----------
D---|-----------------|-----5-----------5----------|--------2-----------
A---|-----------------|--------------3-------------|-----2--------------
D---|-----------------|--5-------------------------|--2-----------0-----
                                                                        

                                                                        
E---------|---------------------------------------|---------------------
B------3--|--------5-----------8-----8p5-----8p5--|--------3------------
G------2--|--------5-----------7-----7-7-----7-7--|--------2------------
D------0--|-----5--5-----------5-----5-5-----5-5--|--------0------------
A---0-----|--3------------------------------------|-----0---------------
D---------|--------------5------------------------|--0------------------
                                                                        

                Intro - 2x              Cool Part (Distortion)          
E------------|-----------------------|----------------------------------
B---------8--|-----------------------|----------------------------------
G---------7--|-----------------------|----------------------------------
D---------5--|-----------------------|----------------------------------
A------------|-----------------------|----------------------------------
D---5--------|-----------------------|--5-----7--8--5-----7~~~--4--0----
                                                                        

                                                                        
E---------|--------------------------|--------------------|-------------
B---------|--------------------------|--------------------|-------------
G---------|--------------------------|-----------7--------|-------------
D---------|--------------------------|--5--7--8-----8-----|--7-----7----
A---------|--0-----3--1--0--------5--|-----------------5--|-----5-------
D------4--|-----------------5--------|--------------------|-------------
                                                                        

                                                                        
E------------------|-----------------------------|----------------------
B------------------|-----------------------------|----------------------
G------5--8--5-----|-----7-----------------------|----------------------
D---------------7--|--8-----8--7-----5-----5-----|--4-----4-----7-------
A---5--------------|--------------------5-----5--|-----5-----5-----5----
D------------------|-----------------------------|----------------------
                                                                        

                                                                        
E---------|-----------------------------|-------------------------------
B---------|-----------------------------|-------------------------------
G---------|-----------------------------|-------------------------------
D---7-----|--5-----------------5-----5--|-----3--------------------3----
A------5--|-----------3--5--6-----6-----|--3-----3--------3--4--5-------
D---------|-----------------------------|-------------------------------
                                                                        

                                                                        
E---------|--------------------------------|----------------------------
B---------|-----------------------------1--|----------------------------
G---------|--------------------------2-----|--3--2--0-------------------
D------3--|-----1--------1--0-----4--------|-----------------------0----
A---5-----|--1-----1-----------------------|-----------------------0----
D---------|--------------------------------|--------------4--5-----0----
                                                                        

                   Repeat other stuff and chirp like a bat.             
E---------------|-------------------------------------------------------
B---------------|-------------------------------------------------------
G---------------|-------------------------------------------------------
D---4--7--5--4--|-------------------------------------------------------
A---4--7--5--4--|-------------------------------------------------------
D---4--7--5--4--|-------------------------------------------------------

     
Добавлено: 23.10.2013
Другие материалы по этой песне:
  • Аккорды и текст

Страница создана 27.02.2012
http://primanota.ru/tourniquet/bats-chords.htm
Привет, Гость.
Предлагаем пройти революционный курс по гитаре.
Подарок от PrimaNota.Ru, забирай!