PrimaNota.ru - самый крупный в мире бесплатный архив песенных текстов, аккордов, табулатур и нот


Touche Amore - Tilde - таба, бас-таба, видео

Регистрация Запомнить меня
Войти через:  Facebook Google Twitter Vk Yandex Mail.ru

Touche Amore - Tilde - таба, бас-таба, видео

Печатать
Просмотров: 217
-------------------------------------------------------------------------------
                             TILDE (~)- Touche Amore
-------------------------------------------------------------------------------

Tabbed by: Kamdude
Email: triathlete_max@hotmail.com

Tuning: Half Step Down

Guitar 1:

[intro]

e|----------------------------------------------------------------------------|
B|----------------------------------0-----------------------------------------|
G|12----14--11br--------------------0-----------------------------------------|
D|12----12--12----------------------0-----------------------------------------|
A|10----10--10-----10-----9----9----7-----------------------------------------|
E|10----10--10-----10----10----8----8-----------------------------------------|


[verse]

e|---------------------------------------------------------------------------|
B|---------------------------------------------------------------------------|
G|-12-12-12-12-12-12-12-12-12-12-12-12-12-12-12-12-11-11-11-11-11-11-11-11---|
D|-x--x--x--x--x--x--x--x--x--x--x--x--x--x--x--x--x--x--x--x--x--x--x--x----|
A|-10-10-10-10-10-10-10-10-10-10-10-10-10-10-10-10-10-10-10-10-10-10-10-10---|
E|---------------------------------------------------------------------------|

e|---------------------------------------------------------------------------|
B|---------------------------------------------------------------------------|
G|-11-11-11-11-11-11-11-11---------------------------------------------------|
D|--x--x--x--x--x--x--x--x---------------------------------------------------|
A|-10-10-10-10-10-10-10-10\---9--9--9--9--9--9--9--9--9--9--9--9--9--9--9--9-|
E|---------------------------10-10-10-10-10-10-10-10-10-10-10-10-10-10-10-10-|

e|---------------------------------------------------------------------------|
B|---------------------------------------------------------------------------|
G|---------------------------------------------------------------------------|
D|---------------------------------------------------------------------------|
A|--7--7--7--7--7--7--7--7--7--7--7--7--7--7--7--7---------------------------|
E|--8--8--8--8--8--8--8--8--8--8--8--8--8--8--8--8---------------------------|




e|---------------------------------------------------------------------------|
B|---------------------------------------------------------------------------|
G|-12-12-12-12-12-12-12-12-12-12-12-12-12-12-12-12-11-11-11-11-11-11-11-11---|
D|-x--x--x--x--x--x--x--x--x--x--x--x--x--x--x--x--x--x--x--x--x--x--x--x----|
A|-10-10-10-10-10-10-10-10-10-10-10-10-10-10-10-10-10-10-10-10-10-10-10-10---|
E|---------------------------------------------------------------------------|

e|---------------------------------------------------------------------------|
B|---------------------------------------------------------------------------|
G|-11-11-11-11-11-11-11-11---------------------------------------------------|
D|--x--x--x--x--x--x--x--x---------------------------------------------------|
A|-10-10-10-10-10-10-10-10\------9----10----9-------------9----10----9-------|
E|---------------------------10------------------10--10-----------------10---|

e|---------------------------------------------------------------------------|
B|---------------------------------------------------------------------------|
G|---------------------------------------------------------------------------|
D|---------------------------------------------------------------------------|
A|--7--7--7--7--7--7--7--7--7--7--7--7--7--7--7--7---------------------------|
E|--8--8--8--8--8--8--8--8--8--8--8--8--8--8--8--8---------------------------|

"I've got my hands behind my back"
e|---------------------------------------------------------------------------|
B|---------------------------------------------------------------------------|
G|-12--12--12-12-----------12------------------------------------------------|
D|-x---x---x---x-------------------------------------------------------------|
A|-10--10--10-10---------------10---9----------------------------------------|
E|-10--10--10-10--------10---------10----------------------------------------|

"Because I can never keep my word"

e|---------------------------------------------------------------------------|
B|---------------------------------------------------------------------------|
G|---------------------------------------------------------------------------|
D|---------------------------------------------------------------------------|
A|--2--2--2--2-2-2--2--2--2--2-2-2--2--2--2--2-2-2--2--2--2-2-2--------------|
E|--3--3--3--3-3-3--3--3--3--3-3-3--0--0--0--0-0-0--0--0--0-0-0--------------|

e|---------------------------------------------------------------------------|
B|---------------------------------------------------------------------------|
G|---------------------------------------------------------------------------|
D|---------------------------------------------------------------------------|
A|--2-2-2-2-2-2-2-2-2-2-2-2-2-2-2-2---7-7-7-7-7-7-7-7-7-7-7-7-7-7-7-7--------|
E|--3-3-3-3-3-3-3-3-3-3-3-3-3-3-3-3---8-8-8-8-8-8-8-8-8-8-8-8-8-8-8-8--------|



Guitar 2:

e|---------------------------------------------------------------------------|
B|---------------------------------------------------------------------------|
G|-12-12-12-12-12-12-12-12-12-12-12-12-12-12-12-12-11-11-11-11-11-11-11-11---|
D|-x--x--x--x--x--x--x--x--x--x--x--x--x--x--x--x--x--x--x--x--x--x--x--x----|
A|-10-10-10-10-10-10-10-10-10-10-10-10-10-10-10-10-10-10-10-10-10-10-10-10---|
E|---------------------------------------------------------------------------|

e|---------------------------------------------------------------------------|
B|---------------------------------------------------------------------------|
G|-11-11-11-11-11-11-11-11---------------------------------------------------|
D|--x--x--x--x--x--x--x--x---------------------------------------------------|
A|-10-10-10-10-10-10-10-10\---9--9--9--9--9--9--9--9--9--9--9--9--9--9--9--9-|
E|---------------------------10-10-10-10-10-10-10-10-10-10-10-10-10-10-10-10-|

e|---------------------------------------------------------------------------|
B|---------------------------------------------------------------------------|
G|---------------------------------------------------------------------------|
D|---------------------------------------------------------------------------|
A|--7--7--7--7--7--7--7--7--7--7--7--7--7--7--7--7---------------------------|
E|--8--8--8--8--8--8--8--8--8--8--8--8--8--8--8--8---------------------------|

x2

(I skipped a portion of the song here, I'm just going to post the ending
since I know it already)

"If actions speak louder..."

e|---------------------------------------------------------------------------|
B|---------------------------------------------------------------------------|
G|--12---12---12--12---------------------------------------------------------|
D|---x----x----x---x--------------------0------0---0---0--0----0---0---0--2--|
A|--10---10---10--10-----10---10---10---9------9---9---9--9----7---7---7--2--|
E|--10---10---10--10-----10---10---10--10------8---8---8--8----8---8---8--0--|



Just need to tab out one more part and it'll finally be finished

Добавлено: 12.06.2012
Другие материалы по этой песне:

Страница создана 12.06.2012
http://primanota.ru/touche-amore/tilde-chords.htm
Привет, Гость.
Предлагаем пройти революционный курс по гитаре.
Подарок от PrimaNota.Ru, забирай!