PrimaNota.ru - самый крупный в мире бесплатный архив песенных текстов, аккордов, табулатур и нот


Touche Amore - The Great Repetition - таба, видео

Регистрация Запомнить меня
Войти через:  Facebook Google Twitter Vk Yandex Mail.ru

Touche Amore - The Great Repetition - таба, видео

Печатать
Просмотров: 106
Уроки эстрадного вокала в Санкт-Петербурге
The Great Repetition - Touché Amoré
jjjddd
Drop C#

d#|--------------------------|    d#|------------------|
A#|--------------------------|    A#|------------------|
F#|--------------------------|    F#|------------------|     }
C#|-1-1-1-3-3-3-5-5-5-5-5-5--| x3 C#|-3-3-3-3-3-3-3-3--|     }x2
G#|-1-1-1-3-3-3-5-5-5-5-5-5--|    G#|-3-3-3-3-3-3-3-3--|     }
C#|-1-1-1-3-3-3-5-5-5-5-5-5--|    C#|-3-3-3-3-3-3-3-3--|

d#|--------------------------------------------------|
A#|--------------------------------------------------|
F#|--3--3--3--3--3--3--3--3--2--2--2--2--2--2--2--2--|
C#|--1--1--1--1--1--1--1--1--0--0--0--0--0--0--0--0--|
G#|--1--1--1--1--1--1--1--1--0--0--0--0--0--0--0--0--|
C#|--1--1--1--1--1--1--1--1--0--0--0--0--0--0--0--0--|

d#|------------------------|
A#|------------------------|
F#|-3-3-3-3-3--2-2--7-7-7--|
C#|------------------------|
G#|-1-1-1-1-1--0-0--5-5-5--|
C#|------------------------|

d#|--------------------------------------------------|
A#|--------------------------------------------------|
F#|--3--3--3--3--3--3--3--3--2--2--2--2--2--2--2--2--|
C#|--1--1--1--1--1--1--1--1--0--0--0--0--0--0--0--0--|
G#|--1--1--1--1--1--1--1--1--0--0--0--0--0--0--0--0--|
C#|--1--1--1--1--1--1--1--1--0--0--0--0--0--0--0--0--|

d#|----------------------------------------------------------------------------------|
A#|---------xxxx------------------------------------------------8h10-8\3-------------|
F#|-3-3-3-3-xxxx-2-2-/-7-7-/-10-101010101010-7-7-7-7-7-7--101010---------7-7-7-7-7-7-|
C#|---------xxxx---------------------------------------------------------------------|
G#|-1-1-1-1-xxxx-0-0-/-5-5-/-8--8-8-8-8-8-8--5-5-5-5-5-5--8-8-8----------5-5-5-5-5-5-|
C#|----------------------------------------------------------------------------------|

d#|------------------------|
A#|------------------------|
F#|--7-7-7-5-5-5--3--------|
C#|--7-7-7-5-5-5--1-hold---|
G#|--5-5-5-3-3-3--1--------|
C#|------------------------|
 
clean part
d#|----------------------------|
A#|--3b------------------------|
F#|-----3-------3--8---7---3---|
C#|-------0h3/5----7---7---1---|x3
G#|----------------5---5---1---|
C#|------------------------1---|

                [play last chord HARD with distortion]
d#|----------------------------|
A#|--3b------------------------|
F#|-----3-------3--8---7--[3]--|
C#|-------0h3/5----7---7--[1]--|
G#|----------------5---5--[1]--|
C#|-----------------------[1]--|


d#|-----------------------------------------------------------------------------|
A#|--3b------------------------3b----------------------3b-----------------------|
F#|-----3-------------3-----------3------------3----------3------------3--------|
C#|---------8-8--7-7--1--------------8-8--7-7--1-------------8-8--7-7--1--------|
G#|---------5-5--3-3--1-HOLD---------5-5--3-3--1-HOLD--------5-5--3-3--1--HOLD--|
C#|---------5-5--3-3--1--------------5-5--3-3--1-------------5-5--3-3--1--------|

d#|---------------------------------------------|
A#|--3b-----------------------------------------|
F#|-----3-----------5-5-5-5--3------------------|
C#|--------8-8-8-8--3-3-3-3--1------------------|
G#|--------5-5-5-5--3-3-3-3--1-HOLD,-RING-OUT---|
C#|--------5-5-5-5--3-3-3-3--1------------------|
Добавлено: 05.08.2013
Другие материалы по этой песне:
  • Аккорды и текст

Страница создана 05.08.2013
http://primanota.ru/touche-amore/the-great-repetition-chords.htm
Привет, Гость.
Предлагаем пройти революционный курс по гитаре.
Подарок от PrimaNota.Ru, забирай!