PrimaNota.ru - самый крупный в мире бесплатный архив песенных текстов, аккордов, табулатур и нот


Touche Amore - Praise Love - таба, видео

Регистрация Запомнить меня
Войти через:  Facebook Google Twitter Vk Yandex Mail.ru

Touche Amore - Praise Love - таба, видео

Печатать
Просмотров: 90
-------------------------------------------------------------------------------
                             Praise/Love - Touché Amoré
-------------------------------------------------------------------------------
Tabbed by: Maggie Barnett
E-mail: maggiebarnetttoo@gmail.com

Tuning: Half-step down

Intro:
D#|---------------------------------------------------------------------------|
A#|---2------2------------2---------------------------------------------------|
F#|-----------------------------1-1b2r1---------------------------------------|
C#|-----4------4------------4-------------------------------------------------|
G#|-2------2------2-2-0-------------------------------------------------------|
D#|---------------------2-----0-----------------------------------------------|

D#|---------------------------------------------------------------------------|
A#|---2------2------------2---------------------------------------------------|
F#|-----------------------------1-1b2r1---------------------------------------|
C#|-----4------4------------4-------------------------------------------------|
G#|-2------2------2-2-0-------------------------------------------------------|
D#|---------------------2-----0-----------------------------------------------|


D#|---------------------------------------------------------------------------|
A#|---0------0---------0-2p0---0----------------------------------------------|
F#|---------------------------------------------------------------------------|
C#|-0---4--0---4-0h2h4-------4---0--------------------------------------------|
G#|-2------2---------------------2--------------------------------------------|
D#|---------------------------------------------------------------------------|

I'm amplified by a microscope...
D#|---------------------------------------------------------------------------|
A#|-2-2------2-----------2----------------------------------------------------|
F#|-x--------------------------1-1b2r1----------------------------------------|
C#|-4---4--4--4--4---------4--------------------------------------------------|x2
G#|-2------2-----2-2-0--------------------------------------------------------|
D#|--------------------2-----0------------------------------------------------|

Sweat poured down and it blinded me
D#|---------------------------------------------------------------------------|
A#|---0------0---------0-2p0---0----------------------------------------------|
F#|---------------------------------------------------------------------------|
C#|-0---4--0---4-0h2h4-------4---0--------------------------------------------|
G#|-2------2---------------------2--------------------------------------------|
D#|---------------------------------------------------------------------------|

Myself exposed for everyone to see
D#|------------------5---------------------------------------------------------|
A#|-3-3---3p2-2-2------5----9--------------------------------------------------|
F#|-2-2---2---2-2--6-----6--9--------------------------------------------------|
C#|-4-4-4-4--4-----7--------9--------------------------------------------------|
G#|-5-5-5----------------------------------------------------------------------|
D#|----------------------------------------------------------------------------|

A glutton for praise, a glutton for love...
D#|----------0-----------------------------------------------------------------|
A#|-2----0---0-----------------------------------------------------------------|
F#|-2----1---2-----------------------------------------------------------------|
C#|----------4-----------------------------------------------------------------|
G#|----------------------------------------------------------------------------|
D#|----------------------------------------------------------------------------|


************************************

| /   slide up
| \   slide down
| h   hammer-on
| p   pull-off
| ~   vibrato
| +   harmonic
| x   Mute note
| b   Bend
| pb  Pre-bend
| br  Bend release
| pbr Pre-bend release
| brb Bend release bend

************************************
Добавлено: 08.11.2015
Другие материалы по этой песне:
  • Аккорды и текст

Страница создана 08.11.2015
http://primanota.ru/touche-amore/praise-love-chords.htm
Привет, Гость.
Предлагаем пройти революционный курс по гитаре.
Подарок от PrimaNota.Ru, забирай!