PrimaNota.ru - самый крупный в мире бесплатный архив песенных текстов, аккордов, табулатур и нот


Touche Amore - Pathfinder - таба, видео

Регистрация Запомнить меня
Войти через:  Facebook Google Twitter Vk Yandex Mail.ru

Touche Amore - Pathfinder - таба, видео

Печатать
Просмотров: 89
Pathfinder - Touché Amoré
jjjddd

Half Step Down tuning

mild/no distortion intro
eb|---------------------------------------------------------------------|
Bb|---------------------------------------------------------------------|
Gb|--9-----9-9-9-9---9-----9-9-9-9---9-----9-9-9-9---9-----9--9--9--9---|
Db|----------------------------------0-----0-0-0-0---0-----0--0--0--0---|
Ab|--7-----7-7-7-7---7-----7-7-7-7--------------------------------------|
Eb|--0-0-0-0-0-0-0---0-0-0-0-0-0-0---8-8-8-8-8-8-8---7-x-x-10-10-10-10--|

full distortion
eb|---------------------------------------------------------------------|
Bb|---------------------------------------------------------------------|
Gb|--9-----9-9-9-9---9-----9-9-9-9---9-----9-9-9-9---9------------------|
Db|----------------------------------0-----0-0-0-0---0-----12-----------|
Ab|--7-----7-7-7-7---7-----7-7-7-7-----------------------------HOLD-----|
Eb|--0-0-0-0-0-0-0---0-0-0-0-0-0-0---8-8-8-8-8-8-8---7-x-x-10-----------|

verse
eb|-------------------------------------------------|
Bb|-------------------------------------------------|
Gb|--9--9--9---9--9--9------------------------------|
Db|----------------------10-10-10--9--12-12-12-12---| x2
Ab|--7--7--7---7--7--7------------------------------|
Eb|--0--0--0---0--0--0---8--8--8---7--10-10-10-10---|

{faster}
eb|-----------------------------------------------------------------------|
Bb|-----------------------------------------------------------------------|
Gb|--9-9-9-9-9-9-9-9--------------------------------------9-9-9-9-9-9-9-9-|
Db|------------------101010101010-12-12-12-12-12-12-12-12-----------------| x2
Ab|--7-7-7-7-7-7-7-7--------------------------------------7-7-7-7-7-7-7-7-|
Eb|--0-0-0-0-0-0-0-0-8-8-8-8-8-8--10-10-10-10-10-10-10-10-0-0-0-0-0-0-0-0-|

eb|-------------------------------------|
Bb|-------------------------------------|
Gb|-9-9-9--------7-7-7------------------|
Db|--------9-9-9-------10-10-10--7h9-9--| x4
Ab|-7-7-7-------------------------------|
Eb|-0-0-0-------------------------------|

eb|------------------------------------------------------------------------|
Bb|------------------------------------------------------------------------|
Gb|-9-9-9--------7-7-7-------------------------------7-7-7-----------------|
Db|--------9-9-9-------10-10-10--7h9-9--101010-9-9-9-------101010-7h9-9----|
Ab|-7-7-7------------------------------------------------------------------|
Eb|-0-0-0-------------------------------8-8-8------------------------------|

eb|-------------------------------------|
Bb|-------------------------------------|
Gb|---------------7-7-7-----------------|
Db|-121212--9-9-9-------10-10-10-7h9-9--|
Ab|-------------------------------------|
Eb|-101010------------------------------|

eb|-------------------------------------|
Bb|-------------------------------------|
Gb|-9-----9-----9------9--9--9--9-------|
Db|----x-----x-----x--------------------|
Ab|-7--x--7--x--7--x---7--7--7--7-------|
Eb|-0--x--0--x--0--x---0--0--0--0-------|
Добавлено: 15.08.2013
Другие материалы по этой песне:
  • Аккорды и текст

Страница создана 15.08.2013
http://primanota.ru/touche-amore/pathfinder-chords.htm
Привет, Гость.
Предлагаем пройти революционный курс по гитаре.
Подарок от PrimaNota.Ru, забирай!