PrimaNota.ru - самый крупный в мире бесплатный архив песенных текстов, аккордов, табулатур и нот


Touche Amore - Honest Sleep - таба, бас-таба, видео

Регистрация Запомнить меня
Войти через:  Facebook Google Twitter Vk Yandex Mail.ru

Touche Amore - Honest Sleep - таба, бас-таба, видео

Печатать
Просмотров: 201
Уроки эстрадного вокала в Санкт-Петербурге
Band: Touche Amore
Song: Honest Sleep
Tuning: Drop C#

The strumming rhythms for this song are pretty straightforward so it shouldn't be
too much of a problem to figure out. As for the solo, I believe it's based around
the E Mixolydian scale.


1st riff:
|------------------------------|
|------------------------------|
|--------10--9---------10--9---|
|--5--8--10--10--3--8--10--10--|
|--5--8--8---7---3--8--8---7---|
|--5--8----------3--8----------|

2nd "riff":
|-------------------|
|-------------------|
|--9----------------|
|--10-x1 billion----|
|--7----------------|
|-------------------|

3rd Riff:
|------------------------------|
|------------------------------|
|------------------------------|
|--4--7--4---------6--0--------|
|--4--7--4---x3----6--0--x4----|
|--4--7--4---------6--0--------|

Build Up:
|---------------------------------------------------------------------|
|----------------------------------6-6-6-6-6-6-6-6-5-5-5-5-5-5-5-5----|
|---------------------------------------------------------------------|
|----------------------------------3-3-3-3-3-3-3-3-3-3-3-3-3-3-3-3----|
|--1-1-1-1-1-1-1-0----------------------------------------------------|
|------------------3-3-3-3-3-3-3-3------------------------------------|

End:
Rhythm
|-----------------------------------------------------------|
|-----------------------------------------------------------|
|--3-3-3-3-3-3-3-2-----------------10-10-10-10-10-10-10-10--|
|--3-3-3-3-3-3-3-2-3-3-3-3-3-3-3-3-10-10-10-10-10-10-10-10--|
|--1-1-1-1-1-1-1-0-3-3-3-3-3-3-3-3-8--8--8--8--8--8--8--8---|
|------------------3-3-3-3-3-3-3-3--------------------------|

--------------------------|
--------------------------|
--9--9--9--9--9--9--9--9--|
--10-10-10-10-10-10-10-10-|
--7--7--7--7--7--7--7--7--|
--------------------------|

Lead
|---------------------------------------------------|
|---------------------------------------------------|
|--15-15-15-15-15-15-15-15-14-14-14-14-14-14-14-14--|
|--x--x--x--x--x--x--x--x--x--x--x--x--x--x--x--x---|
|--13-13-13-13-13-13-13-13-12-12-12-12-12-12-12-12--|
|---------------------------------------------------|

---------------------------------------------------|
---------------------------------------------------|
--19-19-19-19-19-19-19-19-17-17-17-17-17-17-17-17--|
--x--x--x--x--x--x--x--x--x--x--x--x--x--x--x--x---|
--17-17-17-17-17-17-17-17-15-15-15-15-15-15-15-15--|
---------------------------------------------------|
Добавлено: 18.05.2012
Другие материалы по этой песне:

Страница создана 18.05.2012
http://primanota.ru/touche-amore/honest-sleep-chords.htm
Привет, Гость.
Предлагаем пройти революционный курс по гитаре.
Подарок от PrimaNota.Ru, забирай!