PrimaNota.ru - самый крупный в мире бесплатный архив песенных текстов, аккордов, табулатур и нот


Touche Amore - Home Away From Here - таба, видео

Регистрация Запомнить меня
Войти через:  Facebook Google Twitter Vk Yandex Mail.ru

Touche Amore - Home Away From Here - таба, видео

Печатать
Просмотров: 79
Уроки эстрадного вокала в Санкт-Петербурге
e|---------------------------------------------------------------|
B|---------------------------------------------------------------|
G|--15------15------------8/11-11-11-11—10-10-10-10--------------|
D|------13-------------x2----------------------------------------|
A|--13--13--13-13-11------6/9--9--9--9--8--8--8--8---------------|
D|------13-----13-11---------------------------------------------|

e|---------------------------------------------------------------|
B|---------------------------------------------------------------|
G|-13/15-15-15-15-8-8-8-8-11-11-11-11-10-10-10-10----------------|
D|---------------------------------------------------------------|
A|-11/13-13-13-13-6-6-6-6-9--9--9--9--8--8--8--8-----------------|
D|---------------------------------------------------------------|

e|---------------------------------------------------------------|
B|---------------------------------------------------------------|
G|-13/15-13/15-18------------------------------------------------|
D|---------------------------------------------------------------|
A|-11/13—11/13-16------------------------------------------------|
D|---------------------------------------------------------------|
Добавлено: 29.08.2013
Другие материалы по этой песне:

Страница создана 16.04.2012
http://primanota.ru/touche-amore/home-away-from-here-chords.htm
Привет, Гость.
Предлагаем пройти революционный курс по гитаре.
Подарок от PrimaNota.Ru, забирай!