PrimaNota.ru - самый крупный в мире бесплатный архив песенных текстов, аккордов, табулатур и нот


Toubab Krewe - Hang Tan - таба, видео

Регистрация Запомнить меня
Войти через:  Facebook Google Twitter Vk Yandex Mail.ru

Toubab Krewe - Hang Tan - таба, видео

Печатать
Просмотров: 99
-------------------------------------------------------------------------------
                             Hang Tan - Toubab Krewe
-------------------------------------------------------------------------------
Tabbed by: Scott Elwood
Email: ScottElwood@rocketmail.com

Notes: Hey, so I noticed there are ZERO (well, one now) Toubab Krewe tabs out there so I
I would lend a hand in tabbing some of their stuff. Don't take this to be 100% accurate
all since I am just doing this by ear. If you have any suggestions for changes please 
them. Just thank god that we are not tabbing the kora....

Tuning: Standard (EADGBe)

(0:09)

e|-0--2--|     e|-0--|
B|-1--1--|     B|-1--|
G|-2--2--|     G|-2--|
D|-------| x3  D|----|
A|-------|     A|----|
E|-------|     E|----|


(0:17)
                                 [harmonics]
e|---------------------2-----0---12+-12+-12+--|
B|---------------1--3-----3-------------------|
G|------------2-------------------------------|
D|-2-2-2-2-2----------------------------------|
A|--------------------------------------------|
E|--------------------------------------------|

e|---------------------2----------------------|
B|---------------1--3-----3-------------------|
G|------------2--------------2---2---2---2----|
D|-2-2-2-2-2----------------------------------|
A|-----------------------------0---0---0---0--|
E|--------------------------------------------|

                                 [harmonics]
e|---------------------2-----0---12+-12+-12+--|
B|---------------1--3-----3-------------------|
G|------------2-------------------------------|
D|-2-2-2-2-2----------------------------------|
A|--------------------------------------------|
E|--------------------------------------------|

e|---------------------2----------------------|
B|---------------1--3-----3-------------------|
G|------------2--------------2---2---2---2----|
D|-2-2-2-2-2----------------------------------|
A|-----------------------------0---0---0------|
E|--------------------------------------------|


  PM                        PM
e|-8-8--7-8-10--8--7-8-5---|-3-3--2-3-5---3--2-3-0---|
B|-8-----------------------|-3-----------------------|
G|-8-----------------------|-3-----------------------|   X4
D|-------------------------|-------------------------|
A|-------------------------|-------------------------|
E|-------------------------|-------------------------|

                                 [harmonics]
e|---------------------2-----0---12+-12+-12+--|
B|---------------1--3-----3-------------------|
G|------------2-------------------------------|
D|-2-2-2-2-2----------------------------------|
A|--------------------------------------------|
E|--------------------------------------------|

e|---------------------2----------------------|
B|---------------1--3-----3-------------------|
G|------------2--------------2---2---2---2----|
D|-2-2-2-2-2----------------------------------|
A|-----------------------------0---0---0---0--|
E|--------------------------------------------|

                                 [harmonics]
e|---------------------2-----0---12+-12+-12+--|
B|---------------1--3-----3-------------------|
G|------------2-------------------------------|
D|-2-2-2-2-2----------------------------------|
A|--------------------------------------------|
E|--------------------------------------------|

e|---------------------2----------------------|
B|---------------1--3-----3-------------------|
G|------------2--------------2---2---2---2----|
D|-2-2-2-2-2----------------------------------|
A|-----------------------------0---0---0------|
E|--------------------------------------------|

e|-0--2--|
B|-1--1--|
G|-2--2--|  Play over Kora solo (1:10 - 2:14)
D|-------|
A|-------|
E|-------|


                                 PM
e|--------------------------------5--5--------|
B|--------------------------------5-----------|
G|-7/9--7------7------7---9-------5-----------|
D|---------10-----10---------7----------------|
A|--------------------------------------------|
E|--------------------------------------------|

                                 PM
e|--------------------------------5--5--------|
B|--------------------------------5-----------|
G|-7/9--7-----7-h-9---7-h-9-------5-----------|
D|---------9------------------7---------------|
A|--------------------------------------------|
E|--------------------------------------------|


e|-12-12-12-12-12-12-12-12-12--12--12--10--12-|
B|--------------------------------------------|
G|--------------------------------------------|
D|--------------------------------------------|
A|--------------------------------------------|
E|--------------------------------------------|


e|-12-12-12-12-12--10--8--10--8--7--5---------|
B|--------------------------------------------|
G|--------------------------------------------|
D|--------------------------------------------|
A|--------------------------------------------|
E|--------------------------------------------|


e|-12-12-12-12-12-12-12-12-12--12--12--10--12-|
B|--------------------------------------------|
G|--------------------------------------------|
D|--------------------------------------------|
A|--------------------------------------------|
E|--------------------------------------------|

                                            [harmonic]
e|-12-12--10-10--8-8--7h8-7-5-----------------|----|
B|--------------------------------------------|----|
G|--------------------------------------------|-5+-|
D|--------------------------------------------|----|
A|--------------------------------------------|----|
E|--------------------------------------------|----|

e|--------------------------------------------|
B|--------------------------------------------|
G|-8p7p6p5--8--8--8--8--8--8--5---------------|
D|--------------------------------------------|  x3
A|--------------------------------------------|
E|--------------------------------------------|

e|--------------------------------------------|
B|--------------------------------------------|
G|-8-5--8-5--8-5--8-5--8-5--------------------|
D|--------------------------------------------|  x2
A|--------------------------------------------|
E|--------------------------------------------|

e|--------------------------------------------|
B|--------------------------------------------|
G|----8-5--8-5--8-5--8-5--88-5----------------|
D|--------------------------------------------|
A|--------------------------------------------|
E|--------------------------------------------|

e|--------------------------------------------|
B|--------------------------------------------|
G|-8-8-5--8-5--8-5--8-5--8-5------------------|
D|--------------------------------------------|
A|--------------------------------------------|
E|--------------------------------------------|

e|--------------------------------------------|
B|--------------------------------------------|
G|-8-5--8-5--8-5------------------------------|
D|----------------9---------------------------|
A|--------------------------------------------|
E|--------------------------------------------|

e|-12-12-12-12-12-12-12-12-12--12--10-12-10-12|
B|--------------------------------------------|
G|--------------------------------------------|
D|--------------------------------------------|
A|--------------------------------------------|
E|--------------------------------------------|

e|-17-17-17-17--17-17--15-15--14-14--12-10-12-|
B|--------------------------------------------|
G|--------------------------------------------|
D|--------------------------------------------|
A|--------------------------------------------|
E|--------------------------------------------|

e|-12--10--8--7--8--7\------------------------|
B|--------------------------------------------|
G|--------------------------------------------|
D|--------------------------------------------|
A|--------------------------------------------|
E|--------------------------------------------|

e|--------------------------------------------|
B|--------------------------------------------|
G|-7/9-7-5---7/9-7-5---7-5-7/9-7-9------------|
D|---------------------------------7----------|
A|--------------------------------------------|
E|--------------------------------------------|

e|--------------------------------------------|
B|--------------------------------------------|
G|-7/9-7-5---7/9-7-5---7/9\7-5----------------|
D|------------------------------7-------------|
A|--------------------------------------------|
E|--------------------------------------------|

[ This is all I could do for now, I will update it soon with the rest ]


| /  slide up
| \  slide down
| h  hammer-on
| p  pull-off
| ~  vibrato
| +  harmonic
| x  Mute note
===============================================================================
Добавлено: 24.05.2012
Другие материалы по этой песне:
  • Аккорды и текст

Страница создана 24.05.2012
http://primanota.ru/toubab-krewe/hang-tan-chords.htm
Привет, Гость.
Предлагаем пройти революционный курс по гитаре.
Подарок от PrimaNota.Ru, забирай!